999
DXF file: bg_BG-E1531-600BD-324-SS.dxf
999
Pro/ENGINEER 2020414 by Parametric Technology Corporation
  0
SECTION
  2
HEADER
  9
$ACADVER
  1
AC1032
  9
$DWGCODEPAGE
  3
ANSI_1252
  9
$EXTMAX
 10
22.0
 20
17.0
 30
0.0
  9
$EXTMIN
 10
0.0
 20
0.0
 30
0.0
  9
$LIMMIN
 10
0.0
 20
0.0
  9
$LIMMAX
 10
22.0
 20
17.0
  9
$VIEWCTR
 10
11.0
 20
8.5
  9
$VIEWSIZE
 40
17.0
  9
$CLAYER
  8
0
  9
$LTSCALE
 40
1.21
  9
$CELTYPE
  6
BYLAYER
  9
$DIMSCALE
 40
1.0
  9
$DIMASZ
 40
0.1875
  9
$DIMEXO
 40
0.0625
  9
$DIMDLI
 40
0.836
  9
$DIMEXE
 40
0.125
  9
$DIMCEN
 40
0.198
  9
$DIMLFAC
 40
11.0
  9
$DIMBLK
  1
_CLOSED
  9
$DIMALT
 70
0
  9
$DIMALTF
 40
25.4
  9
$DIMTXT
 40
0.15625
  9
$DIMTOL
 70
0
  9
$DIMLIM
 70
0
  9
$DIMTFAC
 40
1.0
  9
$DIMGAP
 40
0.09
  9
$DIMDSEP
 70
46
  9
$AUNITS
 70
0
  9
$PDMODE
 70
3
  9
$PDSIZE
 40
0.3125
  9
$HANDSEED
  5
44B
  9
$TILEMODE
 70
1
  9
$MEASUREMENT
 70
0
  9
$INSUNITS
 70
1
  0
ENDSEC
  0
SECTION
  2
CLASSES
  0
CLASS
  1
ACDBDICTIONARYWDFLT
  2
AcDbDictionaryWithDefault
  3
AutoCAD 2000
 90
0
 91
1
280
0
281
0
  0
CLASS
  1
ACDBPLACEHOLDER
  2
AcDbPlaceHolder
  3
AutoCAD 2000
 90
0
 91
1
280
0
281
0
  0
CLASS
  1
LAYOUT
  2
AcDbLayout
  3
AutoCAD 2000
 90
0
 91
0
280
0
281
0
  0
ENDSEC
  0
SECTION
  2
TABLES
  0
TABLE
  2
VPORT
  5
8
100
AcDbSymbolTable
 70
2
  0
VPORT
  5
1F4
100
AcDbSymbolTableRecord
100
AcDbViewportTableRecord
  2
*ACTIVE
 70
0
 10
0.0
 20
0.0
 11
1.0
 21
1.0
 12
11.0
 22
8.5
 13
0.0
 23
0.0
 14
1.0
 24
1.0
 15
0.0
 25
0.0
 16
0.0
 26
0.0
 36
1.0
 17
0.0
 27
0.0
 37
0.0
 40
17.0
 41
1.2941176471
 42
50.0
 43
0.0
 44
0.0
 50
0.0
 51
0.0
 71
0
 72
100
 73
1
 74
1
 75
0
 76
0
 77
0
 78
0
  0
ENDTAB
  0
TABLE
  2
LTYPE
  5
5
100
AcDbSymbolTable
 70
6
  0
LTYPE
  5
14
100
AcDbSymbolTableRecord
100
AcDbLinetypeTableRecord
  2
BYBLOCK
 70
0
  3

 72
65
 73
0
 40
0.0
  0
LTYPE
  5
15
100
AcDbSymbolTableRecord
100
AcDbLinetypeTableRecord
  2
BYLAYER
 70
0
  3

 72
65
 73
0
 40
0.0
  0
LTYPE
  5
16
100
AcDbSymbolTableRecord
100
AcDbLinetypeTableRecord
  2
CONTINUOUS
 70
64
  3
Solid line
 72
65
 73
0
 40
0.0
  0
LTYPE
  5
1F5
100
AcDbSymbolTableRecord
100
AcDbLinetypeTableRecord
  2
CENTER
 70
64
  3
____ _ ____ _ ____ _ ____ _ ____ _ ____ _ ____
 72
65
 73
4
 40
0.6
 49
0.375
 74
0
 49
-0.075
 74
0
 49
0.075
 74
0
 49
-0.075
 74
0
  0
LTYPE
  5
1F6
100
AcDbSymbolTableRecord
100
AcDbLinetypeTableRecord
  2
HIDDEN
 70
64
  3
- - - - - - - - - - - - - - - - - - - -
 72
65
 73
2
 40
0.2
 49
0.1
 74
0
 49
-0.1
 74
0
  0
LTYPE
  5
1F7
100
AcDbSymbolTableRecord
100
AcDbLinetypeTableRecord
  2
PHANTOM
 70
64
  3
_____ _ _ _____ _ _ _____ _ _ _____
 72
65
 73
6
 40
0.8
 49
0.45
 74
0
 49
-0.05
 74
0
 49
0.1
 74
0
 49
-0.05
 74
0
 49
0.1
 74
0
 49
-0.05
 74
0
  0
LTYPE
  5
1F8
100
AcDbSymbolTableRecord
100
AcDbLinetypeTableRecord
  2
DOT
 70
64
  3
. . . . . . . . . . . . . . . . . . . .
 72
65
 73
2
 40
0.2
 49
0.1
 74
0
 49
-0.1
 74
0
  0
LTYPE
  5
1F9
100
AcDbSymbolTableRecord
100
AcDbLinetypeTableRecord
  2
DASHED
 70
64
  3
- - - - - - - - - - - - - - - - - - - -
 72
65
 73
2
 40
0.2
 49
0.1
 74
0
 49
-0.1
 74
0
  0
ENDTAB
  0
TABLE
  2
LAYER
  5
2
100
AcDbSymbolTable
 70
36
  0
LAYER
  5
10
100
AcDbSymbolTableRecord
100
AcDbLayerTableRecord
  2
0
 70
0
 62
7
  6
CONTINUOUS
370
-3
390
F
  0
LAYER
  5
1FA
100
AcDbSymbolTableRecord
100
AcDbLayerTableRecord
  2
DEFAULT_1
 70
0
 62
7
  6
CENTER
370
-3
390
F
  0
LAYER
  5
1FB
100
AcDbSymbolTableRecord
100
AcDbLayerTableRecord
  2
DEFAULT_2
 70
0
 62
7
  6
HIDDEN
370
-3
390
F
  0
LAYER
  5
1FC
100
AcDbSymbolTableRecord
100
AcDbLayerTableRecord
  2
DEFAULT_3
 70
0
 62
7
  6
PHANTOM
370
-3
390
F
  0
LAYER
  5
1FD
100
AcDbSymbolTableRecord
100
AcDbLayerTableRecord
  2
01_ALL_DTM_PLN
 70
0
 62
7
  6
CONTINUOUS
370
-3
390
F
  0
LAYER
  5
1FE
100
AcDbSymbolTableRecord
100
AcDbLayerTableRecord
  2
01__ASM_ALL_DTM_PLN
 70
0
 62
7
  6
CONTINUOUS
370
-3
390
F
  0
LAYER
  5
1FF
100
AcDbSymbolTableRecord
100
AcDbLayerTableRecord
  2
01__ASM_DEF_DTM_PLN
 70
0
 62
7
  6
CONTINUOUS
370
-3
390
F
  0
LAYER
  5
200
100
AcDbSymbolTableRecord
100
AcDbLayerTableRecord
  2
01___PRT_ALL_DTM_PLN
 70
0
 62
7
  6
CONTINUOUS
370
-3
390
F
  0
LAYER
  5
201
100
AcDbSymbolTableRecord
100
AcDbLayerTableRecord
  2
01___PRT_DEF_DTM_PLN
 70
0
 62
7
  6
CONTINUOUS
370
-3
390
F
  0
LAYER
  5
202
100
AcDbSymbolTableRecord
100
AcDbLayerTableRecord
  2
02_ALL_AXES
 70
0
 62
7
  6
CONTINUOUS
370
-3
390
F
  0
LAYER
  5
203
100
AcDbSymbolTableRecord
100
AcDbLayerTableRecord
  2
02__ASM_ALL_AXES
 70
0
 62
7
  6
CONTINUOUS
370
-3
390
F
  0
LAYER
  5
204
100
AcDbSymbolTableRecord
100
AcDbLayerTableRecord
  2
02___PRT_ALL_AXES
 70
0
 62
7
  6
CONTINUOUS
370
-3
390
F
  0
LAYER
  5
205
100
AcDbSymbolTableRecord
100
AcDbLayerTableRecord
  2
03_ALL_CURVES
 70
0
 62
7
  6
CONTINUOUS
370
-3
390
F
  0
LAYER
  5
206
100
AcDbSymbolTableRecord
100
AcDbLayerTableRecord
  2
03__ASM_ALL_CURVES
 70
0
 62
7
  6
CONTINUOUS
370
-3
390
F
  0
LAYER
  5
207
100
AcDbSymbolTableRecord
100
AcDbLayerTableRecord
  2
03___PRT_ALL_CURVES
 70
0
 62
7
  6
CONTINUOUS
370
-3
390
F
  0
LAYER
  5
208
100
AcDbSymbolTableRecord
100
AcDbLayerTableRecord
  2
04_ALL_DTM_PNT
 70
0
 62
7
  6
CONTINUOUS
370
-3
390
F
  0
LAYER
  5
209
100
AcDbSymbolTableRecord
100
AcDbLayerTableRecord
  2
04__ASM_ALL_DTM_PNT
 70
0
 62
7
  6
CONTINUOUS
370
-3
390
F
  0
LAYER
  5
20A
100
AcDbSymbolTableRecord
100
AcDbLayerTableRecord
  2
04___PRT_ALL_DTM_PNT
 70
0
 62
7
  6
CONTINUOUS
370
-3
390
F
  0
LAYER
  5
20B
100
AcDbSymbolTableRecord
100
AcDbLayerTableRecord
  2
05_ALL_DTM_CSYS
 70
0
 62
7
  6
CONTINUOUS
370
-3
390
F
  0
LAYER
  5
20C
100
AcDbSymbolTableRecord
100
AcDbLayerTableRecord
  2
05__ASM_ALL_DTM_CSYS
 70
0
 62
7
  6
CONTINUOUS
370
-3
390
F
  0
LAYER
  5
20D
100
AcDbSymbolTableRecord
100
AcDbLayerTableRecord
  2
05__ASM_DEF_DTM_CSYS
 70
0
 62
7
  6
CONTINUOUS
370
-3
390
F
  0
LAYER
  5
20E
100
AcDbSymbolTableRecord
100
AcDbLayerTableRecord
  2
05___PRT_ALL_DTM_CSYS
 70
0
 62
7
  6
CONTINUOUS
370
-3
390
F
  0
LAYER
  5
20F
100
AcDbSymbolTableRecord
100
AcDbLayerTableRecord
  2
05___PRT_DEF_DTM_CSYS
 70
0
 62
7
  6
CONTINUOUS
370
-3
390
F
  0
LAYER
  5
210
100
AcDbSymbolTableRecord
100
AcDbLayerTableRecord
  2
06_ALL_SURFS
 70
0
 62
7
  6
CONTINUOUS
370
-3
390
F
  0
LAYER
  5
211
100
AcDbSymbolTableRecord
100
AcDbLayerTableRecord
  2
06__ASM_ALL_SURFS
 70
0
 62
7
  6
CONTINUOUS
370
-3
390
F
  0
LAYER
  5
212
100
AcDbSymbolTableRecord
100
AcDbLayerTableRecord
  2
06___PRT_ALL_SURFS
 70
0
 62
7
  6
CONTINUOUS
370
-3
390
F
  0
LAYER
  5
213
100
AcDbSymbolTableRecord
100
AcDbLayerTableRecord
  2
07__ASM_ALL_SKELETONS
 70
0
 62
7
  6
CONTINUOUS
370
-3
390
F
  0
LAYER
  5
214
100
AcDbSymbolTableRecord
100
AcDbLayerTableRecord
  2
DTM
 70
0
 62
7
  6
CONTINUOUS
370
-3
390
F
  0
LAYER
  5
215
100
AcDbSymbolTableRecord
100
AcDbLayerTableRecord
  2
HIDE
 70
0
 62
7
  6
CONTINUOUS
370
-3
390
F
  0
ENDTAB
  0
TABLE
  2
STYLE
  5
3
100
AcDbSymbolTable
 70
1
  0
STYLE
  5
11
100
AcDbSymbolTableRecord
100
AcDbTextStyleTableRecord
  2
STANDARD
 70
0
 40
0.0
 41
0.8
 50
0.0
 71
0
 42
0.2
  3
SIMPLEX.SHX
  4

  0
STYLE
  5
216
100
AcDbSymbolTableRecord
100
AcDbTextStyleTableRecord
  2
TEXTSTYLE_1
 70
0
 40
0.0
 41
0.8
 50
0.0
 71
0
 42
0.2
  3
gdt
  4

  0
ENDTAB
  0
TABLE
  2
VIEW
  5
6
100
AcDbSymbolTable
 70
0
  0
ENDTAB
  0
TABLE
  2
UCS
  5
7
100
AcDbSymbolTable
 70
0
  0
ENDTAB
  0
TABLE
  2
APPID
  5
9
100
AcDbSymbolTable
 70
1
  0
APPID
  5
217
100
AcDbSymbolTableRecord
100
AcDbRegAppTableRecord
  2
ACAD
 70
0
  0
ENDTAB
  0
TABLE
  2
BLOCK_RECORD
  5
1
100
AcDbSymbolTable
 70
0
  0
BLOCK_RECORD
  5
218
100
AcDbSymbolTableRecord
100
AcDbBlockTableRecord
  2
*Model_Space
  0
BLOCK_RECORD
  5
219
100
AcDbSymbolTableRecord
100
AcDbBlockTableRecord
  2
*Paper_Space
  0
BLOCK_RECORD
  5
21A
100
AcDbSymbolTableRecord
100
AcDbBlockTableRecord
  2
_CLOSED
  0
ENDTAB
  0
TABLE
  2
DIMSTYLE
  5
A
100
AcDbSymbolTable
 70
1
100
AcDbDimStyleTable
 71
0
  0
DIMSTYLE
105
21B
100
AcDbSymbolTableRecord
100
AcDbDimStyleTableRecord
  2
STANDARD
 70
0
  3

  4

 40
1.0
 41
0.1875
 42
0.0625
 43
0.38
 44
0.125
 45
0.0
 46
0.0
 47
0.0001
 48
0.0001
140
0.15625
141
0.09
142
0.0
143
25.4
144
1.0
145
0.0
146
1.0
147
0.09
 71
0
 72
0
 73
1
 74
1
 75
0
 76
0
 77
0
 78
4
 79
1
170
0
171
3
172
0
173
0
174
0
175
0
176
0
177
0
178
0
270
2
179
4
271
4
272
4
273
2
274
2
275
0
280
0
281
0
282
0
283
1
284
4
285
0
286
0
287
3
288
0
340
11
278
46
341
21A
342
21A
343
21A
344
21A
  0
ENDTAB
  0
ENDSEC
  0
SECTION
  2
BLOCKS
  0
BLOCK
  5
20
100
AcDbEntity
  8
0
100
AcDbBlockBegin
  2
*Model_Space
 70
0
 10
0.0
 20
0.0
 30
0.0
  3
*Model_Space
  1

  0
ENDBLK
  5
21
100
AcDbEntity
  8
0
100
AcDbBlockEnd
  0
BLOCK
  5
1C
100
AcDbEntity
  8
0
100
AcDbBlockBegin
  2
*Paper_Space
 70
0
 10
0.0
 20
0.0
 30
0.0
  3
*Paper_Space
  1

  0
ENDBLK
  5
1D
100
AcDbEntity
  8
0
100
AcDbBlockEnd
  0
BLOCK
  5
21C
100
AcDbEntity
  8
0
100
AcDbBlockBegin
  2
_CLOSED
 70
64
 10
0.0
 20
0.0
  3
_CLOSED
  1

  0
LINE
  5
21D
100
AcDbEntity
  8
0
  6
BYBLOCK
 62
0
100
AcDbLine
 10
0.0
 20
0.0
 11
-1.0
 21
0.1666666667
  0
LINE
  5
21E
100
AcDbEntity
  8
0
  6
BYBLOCK
 62
0
100
AcDbLine
 10
-1.0
 20
0.1666666667
 11
-1.0
 21
-0.1666666667
  0
LINE
  5
21F
100
AcDbEntity
  8
0
  6
BYBLOCK
 62
0
100
AcDbLine
 10
-1.0
 20
-0.1666666667
 11
0.0
 21
0.0
  0
LINE
  5
220
100
AcDbEntity
  8
0
  6
BYBLOCK
 62
0
100
AcDbLine
 10
-1.0
 20
0.0
 11
0.0
 21
0.0
  0
ENDBLK
  5
221
100
AcDbEntity
  8
0
  6
BYBLOCK
 62
0
100
AcDbBlockEnd
  0
ENDSEC
  0
SECTION
  2
ENTITIES
  0
LINE
  5
222
100
AcDbEntity
  8
0
100
AcDbLine
 62
7
  6
BYLAYER
 10
0.0
 20
0.0
 11
0.0
 21
17.0
  0
LINE
  5
223
100
AcDbEntity
  8
0
100
AcDbLine
 62
7
  6
BYLAYER
 10
0.0
 20
0.0
 11
22.0
 21
0.0
  0
LINE
  5
224
100
AcDbEntity
  8
0
100
AcDbLine
 62
7
  6
BYLAYER
 10
0.0
 20
17.0
 11
22.0
 21
17.0
  0
LINE
  5
225
100
AcDbEntity
  8
0
100
AcDbLine
 62
7
  6
BYLAYER
 10
22.0
 20
0.0
 11
22.0
 21
17.0
  0
LINE
  5
226
100
AcDbEntity
  8
0
100
AcDbLine
 62
7
  6
BYLAYER
 10
3.7215909091
 20
3.5423890909
 11
3.7215909091
 21
4.9582981818
  0
LINE
  5
227
100
AcDbEntity
  8
0
100
AcDbLine
 62
7
  6
BYLAYER
 10
3.7806818182
 20
3.5249706977
 11
3.7806818182
 21
5.0651163636
  0
LINE
  5
228
100
AcDbEntity
  8
0
100
AcDbLine
 62
7
  6
BYLAYER
 10
4.4034090909
 20
3.5651163636
 11
4.4034090909
 21
3.5196618182
  0
LWPOLYLINE
  5
229
100
AcDbEntity
  8
0
100
AcDbPolyline
 62
7
  6
BYLAYER
 90
73
 70
0
 10
6.6420454545
 20
3.30024
 10
6.6500595691
 20
3.300361397
 10
6.6591322905
 20
3.3007915331
 10
6.6680719721
 20
3.3015198717
 10
6.6768709347
 20
3.3025337067
 10
6.6855216946
 20
3.3038207113
 10
6.6940174254
 20
3.3053689382
 10
6.7023519781
 20
3.3071668157
 10
6.7105197988
 20
3.3092031289
 10
6.7185159697
 20
3.3114670238
 10
6.7263362036
 20
3.3139473496
 10
6.7339772042
 20
3.3166319875
 10
6.741436111
 20
3.3195090688
 10
6.748710514
 20
3.3225671879
 10
6.7557984786
 20
3.3257954115
 10
6.7626984524
 20
3.3291832387
 10
6.7694092489
 20
3.3327205873
 10
6.7759300379
 20
3.3363977855
 10
6.7822603147
 20
3.3402055525
 10
6.7883999029
 20
3.3441349755
 10
6.7943492803
 20
3.3481769528
 10
6.8001097512
 20
3.3523222226
 10
6.8056823
 20
3.3565615214
 10
6.8110685251
 20
3.3608863006
 10
6.8162691373
 20
3.3652875085
 10
6.8212853871
 20
3.3697566507
 10
6.8261186174
 20
3.3742854318
 10
6.830770419
 20
3.3788658829
 10
6.8352425867
 20
3.3834903263
 10
6.839537035
 20
3.3881512845
 10
6.8436561751
 20
3.3928419002
 10
6.8476021049
 20
3.3975546227
 10
6.8513799001
 20
3.4022847272
 10
6.8549937351
 20
3.4070267746
 10
6.8584488568
 20
3.4117772566
 10
6.8617500627
 20
3.4165327109
 10
6.8649020521
 20
3.4212901461
 10
6.8679093623
 20
3.4260469372
 10
6.8707763803
 20
3.4308008255
 10
6.8735072906
 20
3.4355498122
 10
6.876106295
 20
3.4402925349
 10
6.8785777705
 20
3.4450286469
 10
6.8809243195
 20
3.4497549575
 10
6.8831496474
 20
3.4544708385
 10
6.8852545388
 20
3.459169536
 10
6.8872410152
 20
3.4638456808
 10
6.8891116139
 20
3.4684944651
 10
6.8908688872
 20
3.4731109514
 10
6.8925157199
 20
3.4776909222
 10
6.8940550974
 20
3.4822303749
 10
6.8954898516
 20
3.4867247339
 10
6.8968233855
 20
3.4911711218
 10
6.8980576801
 20
3.4955615813
 10
6.8991976314
 20
3.4998982958
 10
6.9002396461
 20
3.5041491458
 10
6.9011848384
 20
3.5082944191
 10
6.9020322382
 20
3.5122991548
 10
6.9027829454
 20
3.5161295133
 10
6.9034415739
 20
3.5197628907
 10
6.9040113446
 20
3.5231636843
 10
6.90450291
 20
3.5263384923
 10
6.9049229855
 20
3.5292730121
 10
6.9052837747
 20
3.5319967667
 10
6.905594469
 20
3.5345293605
 10
6.9058628677
 20
3.5368894459
 10
6.90609592
 20
3.5390980823
 10
6.9062990213
 20
3.5411706923
 10
6.906477415
 20
3.5431293155
 10
6.9066340726
 20
3.5449780045
 10
6.906771968
 20
3.5467246255
 10
6.9068939454
 20
3.5483801349
 10
6.9070023844
 20
3.5499541332
 10
6.9071868738
 20
3.5528996401
  0
LINE
  5
22A
100
AcDbEntity
  8
0
100
AcDbLine
 62
7
  6
BYLAYER
 10
4.4034090909
 20
3.5196618182
 11
5.6761363636
 21
3.5196618182
  0
LINE
  5
22B
100
AcDbEntity
  8
0
100
AcDbLine
 62
7
  6
BYLAYER
 10
3.7806818182
 20
3.5249706977
 11
4.4034090909
 21
3.5249706977
  0
LINE
  5
22C
100
AcDbEntity
  8
0
100
AcDbLine
 62
7
  6
BYLAYER
 10
5.6761363636
 20
3.5249706977
 11
5.8352272727
 21
3.5249706977
  0
LINE
  5
22D
100
AcDbEntity
  8
0
100
AcDbLine
 62
7
  6
BYLAYER
 10
5.9943181818
 20
3.5423890909
 11
5.8352272727
 21
3.5423890909
  0
LINE
  5
22E
100
AcDbEntity
  8
0
100
AcDbLine
 62
7
  6
BYLAYER
 10
3.7215909091
 20
3.5423890909
 11
3.7806818182
 21
3.5423890909
  0
LINE
  5
22F
100
AcDbEntity
  8
0
100
AcDbLine
 62
7
  6
BYLAYER
 10
4.4034090909
 20
3.5651163636
 11
5.6761363636
 21
3.5651163636
  0
LINE
  5
230
100
AcDbEntity
  8
0
100
AcDbLine
 62
7
  6
BYLAYER
 10
7.2784090909
 20
3.57648
 11
7.1256818182
 21
3.57648
  0
LINE
  5
231
100
AcDbEntity
  8
0
100
AcDbLine
 62
7
  6
BYLAYER
 10
4.9147727273
 20
4.3992328672
 11
4.9147727273
 21
4.0946362238
  0
LINE
  5
232
100
AcDbEntity
  8
0
100
AcDbLine
 62
7
  6
BYLAYER
 10
4.9261363636
 20
4.1332981818
 11
4.9261363636
 21
4.3605709091
  0
LINE
  5
233
100
AcDbEntity
  8
0
100
AcDbLine
 62
7
  6
BYLAYER
 10
7.1256818182
 20
3.8699362768
 11
7.0056818182
 21
3.8594376372
  0
LINE
  5
234
100
AcDbEntity
  8
0
100
AcDbLine
 62
7
  6
BYLAYER
 10
6.3796197823
 20
3.7194663866
 11
6.3551363636
 21
3.72148
  0
LINE
  5
235
100
AcDbEntity
  8
0
100
AcDbLine
 62
7
  6
BYLAYER
 10
5.1534090909
 20
4.3605709091
 11
5.1534090909
 21
4.1332981818
  0
LINE
  5
236
100
AcDbEntity
  8
0
100
AcDbLine
 62
7
  6
BYLAYER
 10
5.1647727273
 20
4.3992328672
 11
5.1647727273
 21
4.0946362238
  0
LINE
  5
237
100
AcDbEntity
  8
0
100
AcDbLine
 62
7
  6
BYLAYER
 10
6.0394204557
 20
4.0170481818
 11
6.3100340989
 21
4.0170481818
  0
LINE
  5
238
100
AcDbEntity
  8
0
100
AcDbLine
 62
7
  6
BYLAYER
 10
4.9147727273
 20
4.0946362238
 11
5.1647727273
 21
4.0946362238
  0
LINE
  5
239
100
AcDbEntity
  8
0
100
AcDbLine
 62
7
  6
BYLAYER
 10
4.9147727273
 20
4.1105709091
 11
5.1647727273
 21
4.1105709091
  0
LINE
  5
23A
100
AcDbEntity
  8
0
100
AcDbLine
 62
7
  6
BYLAYER
 10
6.3100340989
 20
4.1787527273
 11
6.0394204557
 21
4.1787527273
  0
LINE
  5
23B
100
AcDbEntity
  8
0
100
AcDbLine
 62
7
  6
BYLAYER
 10
6.3100340989
 20
4.3151163636
 11
6.0394204557
 21
4.3151163636
  0
LINE
  5
23C
100
AcDbEntity
  8
0
100
AcDbLine
 62
7
  6
BYLAYER
 10
4.9488636364
 20
4.3832981818
 11
5.1306818182
 21
4.3832981818
  0
LINE
  5
23D
100
AcDbEntity
  8
0
100
AcDbLine
 62
7
  6
BYLAYER
 10
4.9147727273
 20
4.3992328672
 11
5.1647727273
 21
4.3992328672
  0
LINE
  5
23E
100
AcDbEntity
  8
0
100
AcDbLine
 62
7
  6
BYLAYER
 10
5.6761363636
 20
3.5651163636
 11
5.6761363636
 21
3.5196618182
  0
LINE
  5
23F
100
AcDbEntity
  8
0
100
AcDbLine
 62
7
  6
BYLAYER
 10
6.0394204557
 20
4.4768209091
 11
6.3100340989
 21
4.4768209091
  0
LINE
  5
240
100
AcDbEntity
  8
0
100
AcDbLine
 62
7
  6
BYLAYER
 10
5.8352272727
 20
5.0651163636
 11
5.8352272727
 21
3.5249706977
  0
LINE
  5
241
100
AcDbEntity
  8
0
100
AcDbLine
 62
7
  6
BYLAYER
 10
5.8943181818
 20
3.5423890909
 11
5.8943181818
 21
5.0037527273
  0
LINE
  5
242
100
AcDbEntity
  8
0
100
AcDbLine
 62
7
  6
BYLAYER
 10
7.1256818182
 20
4.6505709091
 11
6.9695676548
 21
4.6505709091
  0
LINE
  5
243
100
AcDbEntity
  8
0
100
AcDbLine
 62
7
  6
BYLAYER
 10
5.9352272727
 20
3.5423890909
 11
5.9352272727
 21
4.9628436364
  0
LINE
  5
244
100
AcDbEntity
  8
0
100
AcDbLine
 62
7
  6
BYLAYER
 10
5.9943181818
 20
4.9628436364
 11
5.9943181818
 21
3.5423890909
  0
LINE
  5
245
100
AcDbEntity
  8
0
100
AcDbLine
 62
7
  6
BYLAYER
 10
6.0394204557
 20
4.4768209091
 11
6.0394204557
 21
4.0170481818
  0
LINE
  5
246
100
AcDbEntity
  8
0
100
AcDbLine
 62
7
  6
BYLAYER
 10
6.4004764448
 20
4.7761180388
 11
6.3551363636
 21
4.7723890909
  0
LINE
  5
247
100
AcDbEntity
  8
0
100
AcDbLine
 62
7
  6
BYLAYER
 10
6.0911363636
 20
5.20148
 11
6.0911363636
 21
5.0651163636
  0
LWPOLYLINE
  5
248
100
AcDbEntity
  8
0
100
AcDbPolyline
 62
7
  6
BYLAYER
 90
59
 70
0
 10
6.6420454545
 20
4.9492325038
 10
6.6338267394
 20
4.9490990631
 10
6.6245349761
 20
4.9486270707
 10
6.6154563925
 20
4.9478360113
 10
6.6065928139
 20
4.9467468323
 10
6.5979474837
 20
4.9453792311
 10
6.589522549
 20
4.9437516284
 10
6.5813191273
 20
4.941881213
 10
6.5733375589
 20
4.9397840274
 10
6.5655773714
 20
4.9374750852
 10
6.5580369598
 20
4.9349694453
 10
6.5507139515
 20
4.9322818409
 10
6.5436054758
 20
4.9294258111
 10
6.5367082389
 20
4.9264137389
 10
6.5300187639
 20
4.9232569931
 10
6.5235328339
 20
4.9199656869
 10
6.5172477226
 20
4.9165498702
 10
6.5111597874
 20
4.9130184217
 10
6.5052662174
 20
4.9093800476
 10
6.4995636915
 20
4.9056427462
 10
6.4940483032
 20
4.9018145818
 10
6.4887159076
 20
4.8979032014
 10
6.4835623384
 20
4.8939155683
 10
6.4785830731
 20
4.8898577007
 10
6.4737750271
 20
4.8857361904
 10
6.4691339908
 20
4.8815561615
 10
6.4646586865
 20
4.8773249639
 10
6.4603468579
 20
4.8730488925
 10
6.4561964858
 20
4.8687342854
 10
6.4522053406
 20
4.8643871138
 10
6.448371064
 20
4.86001306
 10
6.4446909919
 20
4.8556177303
 10
6.4411620283
 20
4.8512067732
 10
6.4377809515
 20
4.846785506
 10
6.4345447186
 20
4.8423592413
 10
6.4314500181
 20
4.8379327022
 10
6.4284942047
 20
4.8335113786
 10
6.4256743447
 20
4.8291002405
 10
6.4229875654
 20
4.8247042476
 10
6.4204308895
 20
4.8203281044
 10
6.4180012767
 20
4.8159763186
 10
6.4156958345
 20
4.8116536037
 10
6.4135107767
 20
4.8073628739
 10
6.4114431586
 20
4.8031085021
 10
6.4094876138
 20
4.7988895276
 10
6.4076396288
 20
4.7947063118
 10
6.4058941962
 20
4.7905579069
 10
6.404246694
 20
4.7864433747
 10
6.4026927685
 20
4.7823615105
 10
6.4012283385
 20
4.7783108845
 10
6.3998495474
 20
4.7742897361
 10
6.3985524019
 20
4.7702948282
 10
6.3973347678
 20
4.7663277991
 10
6.3961921584
 20
4.7623817707
 10
6.3951281357
 20
4.7584780445
 10
6.3941432418
 20
4.7546309311
 10
6.3932372737
 20
4.7508548428
 10
6.3924094435
 20
4.7471648564
 10
6.3916090623
 20
4.7433319083
  0
LINE
  5
249
100
AcDbEntity
  8
0
100
AcDbLine
 62
7
  6
BYLAYER
 10
7.2784090909
 20
4.9173890909
 11
7.1256818182
 21
4.9173890909
  0
LINE
  5
24A
100
AcDbEntity
  8
0
100
AcDbLine
 62
7
  6
BYLAYER
 10
6.338510101
 20
4.9401163636
 11
6.3238636364
 21
4.9401163636
  0
LINE
  5
24B
100
AcDbEntity
  8
0
100
AcDbLine
 62
7
  6
BYLAYER
 10
6.3100340989
 20
4.4768209091
 11
6.3100340989
 21
4.0170481818
  0
LINE
  5
24C
100
AcDbEntity
  8
0
100
AcDbLine
 62
7
  6
BYLAYER
 10
6.3238636364
 20
5.0651163636
 11
6.3238636364
 21
4.9401163636
  0
LINE
  5
24D
100
AcDbEntity
  8
0
100
AcDbLine
 62
7
  6
BYLAYER
 10
6.3551363728
 20
3.7871618182
 11
5.9943181818
 21
3.6105709091
  0
LINE
  5
24E
100
AcDbEntity
  8
0
100
AcDbLine
 62
7
  6
BYLAYER
 10
5.9943181818
 20
4.9628436364
 11
5.9352272727
 21
4.9628436364
  0
LINE
  5
24F
100
AcDbEntity
  8
0
100
AcDbLine
 62
7
  6
BYLAYER
 10
5.8943181818
 20
5.0037527273
 11
5.8352272727
 21
5.0037527273
  0
LINE
  5
250
100
AcDbEntity
  8
0
100
AcDbLine
 62
7
  6
BYLAYER
 10
3.7806818182
 20
5.0037527273
 11
3.7670454545
 21
5.0037527273
  0
LINE
  5
251
100
AcDbEntity
  8
0
100
AcDbLine
 62
7
  6
BYLAYER
 10
3.7806818182
 20
5.0651163636
 11
5.8352272727
 21
5.0651163636
  0
LINE
  5
252
100
AcDbEntity
  8
0
100
AcDbLine
 62
7
  6
BYLAYER
 10
6.0911363636
 20
5.0651163636
 11
7.1929545455
 21
5.0651163636
  0
LINE
  5
253
100
AcDbEntity
  8
0
100
AcDbLine
 62
7
  6
BYLAYER
 10
6.3551363728
 20
4.7067072727
 11
5.9943181818
 21
4.8832981818
  0
LINE
  5
254
100
AcDbEntity
  8
0
100
AcDbLine
 62
7
  6
BYLAYER
 10
5.9352272727
 20
4.9628436364
 11
5.8943181818
 21
5.0037527273
  0
LWPOLYLINE
  5
255
100
AcDbEntity
  8
0
100
AcDbPolyline
 62
7
  6
BYLAYER
 90
73
 70
0
 10
6.3770884132
 20
3.5499558068
 10
6.3772059385
 20
3.5482543951
 10
6.3773401537
 20
3.5464478332
 10
6.3774947992
 20
3.5445176891
 10
6.3776741051
 20
3.5424477198
 10
6.3778834239
 20
3.5402176787
 10
6.3781276831
 20
3.5378204935
 10
6.3784134531
 20
3.5352403625
 10
6.3787455474
 20
3.5324837728
 10
6.3791296449
 20
3.5295523092
 10
6.3795718954
 20
3.5264469101
 10
6.38007834
 20
3.5231712933
 10
6.3806563883
 20
3.5197224103
 10
6.3813137172
 20
3.5160989858
 10
6.3820577489
 20
3.5123036833
 10
6.3828975636
 20
3.5083331658
 10
6.3838373929
 20
3.5042078398
 10
6.3848826644
 20
3.4999401161
 10
6.3860356275
 20
3.4955527604
 10
6.387298183
 20
3.4910656316
 10
6.3886705024
 20
3.4865006827
 10
6.3901504737
 20
3.4818827307
 10
6.3917391876
 20
3.4772227268
 10
6.3934340086
 20
3.4725400233
 10
6.3952388409
 20
3.4678339492
 10
6.3971555762
 20
3.4631095227
 10
6.3991868152
 20
3.4583698616
 10
6.40133485
 20
3.4536188583
 10
6.403601904
 20
3.4488599785
 10
6.4059898114
 20
3.4440967856
 10
6.4085002438
 20
3.4393330923
 10
6.4111348267
 20
3.4345727628
 10
6.4138950072
 20
3.429819949
 10
6.4167821936
 20
3.4250788255
 10
6.4197975657
 20
3.420353898
 10
6.4229421908
 20
3.4156497829
 10
6.4262171829
 20
3.4109709807
 10
6.429622963
 20
3.4063229094
 10
6.4331620917
 20
3.4017081123
 10
6.4368365144
 20
3.3971302618
 10
6.4406486786
 20
3.3925926756
 10
6.444600915
 20
3.3880989957
 10
6.4486950737
 20
3.3836528366
 10
6.4529328599
 20
3.3792579
 10
6.4573159628
 20
3.3749181461
 10
6.4618460562
 20
3.3706377977
 10
6.4665247853
 20
3.3664213562
 10
6.4713537652
 20
3.3622736081
 10
6.4763345599
 20
3.3581996477
 10
6.4814686614
 20
3.3542048975
 10
6.4867575952
 20
3.3502950349
 10
6.4922026304
 20
3.3464762149
 10
6.4978056285
 20
3.3427544955
 10
6.5035680648
 20
3.3391363678
 10
6.5094911119
 20
3.3356278524
 10
6.5155755952
 20
3.3322351802
 10
6.5218221921
 20
3.3289649799
 10
6.5282314035
 20
3.3258242997
 10
6.5348035445
 20
3.3228206189
 10
6.5415387104
 20
3.319961872
 10
6.548436767
 20
3.3172564616
 10
6.5554973449
 20
3.3147132728
 10
6.5627196706
 20
3.3123417423
 10
6.5701026575
 20
3.3101518061
 10
6.577644718
 20
3.3081531465
 10
6.5853435117
 20
3.3063549556
 10
6.5931963722
 20
3.304766774
 10
6.601200108
 20
3.3033986183
 10
6.6093510369
 20
3.3022609795
 10
6.6176449009
 20
3.3013648469
 10
6.6260768745
 20
3.3007217185
 10
6.634642609
 20
3.3003435913
 10
6.6420454545
 20
3.30024
  0
LINE
  5
256
100
AcDbEntity
  8
0
100
AcDbLine
 62
7
  6
BYLAYER
 10
6.3768915287
 20
3.5531133642
 11
6.3770884132
 21
3.5499558068
  0
LINE
  5
257
100
AcDbEntity
  8
0
100
AcDbLine
 62
7
  6
BYLAYER
 10
6.3767313143
 20
3.5560376003
 11
6.3768915287
 21
3.5531133642
  0
LINE
  5
258
100
AcDbEntity
  8
0
100
AcDbLine
 62
7
  6
BYLAYER
 10
6.3765956008
 20
3.5588259526
 11
6.3767313143
 21
3.5560376003
  0
LINE
  5
259
100
AcDbEntity
  8
02___PRT_ALL_AXES
100
AcDbLine
 62
7
  6
BYLAYER
 10
6.338510101
 20
4.9401163636
 11
6.3487448097
 21
4.7098354186
  0
LINE
  5
25A
100
AcDbEntity
  8
0
100
AcDbLine
 62
7
  6
BYLAYER
 10
6.3764202752
 20
3.5629414102
 11
6.3765956008
 21
3.5588259526
  0
LINE
  5
25B
100
AcDbEntity
  8
0
100
AcDbLine
 62
7
  6
BYLAYER
 10
6.3762648141
 20
3.5671572673
 11
6.3764202752
 21
3.5629414102
  0
LINE
  5
25C
100
AcDbEntity
  8
0
100
AcDbLine
 62
7
  6
BYLAYER
 10
6.3760737353
 20
3.5731679427
 11
6.3762648141
 21
3.5671572673
  0
LINE
  5
25D
100
AcDbEntity
  8
0
100
AcDbLine
 62
7
  6
BYLAYER
 10
6.3758472947
 20
3.5815776233
 11
6.3760737353
 21
3.5731679427
  0
LINE
  5
25E
100
AcDbEntity
  8
0
100
AcDbLine
 62
7
  6
BYLAYER
 10
6.3755356011
 20
3.595540601
 11
6.3758472947
 21
3.5815776233
  0
LINE
  5
25F
100
AcDbEntity
  8
0
100
AcDbLine
 62
7
  6
BYLAYER
 10
6.3750320684
 20
3.6239143094
 11
6.3755356011
 21
3.595540601
  0
LINE
  5
260
100
AcDbEntity
  8
0
100
AcDbLine
 62
7
  6
BYLAYER
 10
6.3740760149
 20
3.6959201612
 11
6.3750320684
 21
3.6239143094
  0
LINE
  5
261
100
AcDbEntity
  8
0
100
AcDbLine
 62
7
  6
BYLAYER
 10
6.3738071402
 20
3.7199444414
 11
6.3740760149
 21
3.6959201612
  0
LINE
  5
262
100
AcDbEntity
  8
0
100
AcDbLine
 62
7
  6
BYLAYER
 10
6.3551363636
 20
4.7723890909
 11
6.3551363636
 21
3.72148
  0
LINE
  5
263
100
AcDbEntity
  8
0
100
AcDbLine
 62
7
  6
BYLAYER
 10
6.3818031724
 20
4.0738047674
 11
6.3812287084
 21
3.9623450531
  0
LINE
  5
264
100
AcDbEntity
  8
0
100
AcDbLine
 62
7
  6
BYLAYER
 10
6.3812287084
 20
3.9623450531
 11
6.380743488
 21
3.8776792358
  0
LINE
  5
265
100
AcDbEntity
  8
0
100
AcDbLine
 62
7
  6
BYLAYER
 10
6.380743488
 20
3.8776792358
 11
6.3802839156
 21
3.8063433411
  0
LINE
  5
266
100
AcDbEntity
  8
0
100
AcDbLine
 62
7
  6
BYLAYER
 10
6.3802839156
 20
3.8063433411
 11
6.3798475067
 21
3.7470440101
  0
LINE
  5
267
100
AcDbEntity
  8
0
100
AcDbLine
 62
7
  6
BYLAYER
 10
6.3798475067
 20
3.7470440101
 11
6.3794803672
 21
3.7037298655
  0
LINE
  5
268
100
AcDbEntity
  8
0
100
AcDbLine
 62
7
  6
BYLAYER
 10
6.3794803672
 20
3.7037298655
 11
6.3791346795
 21
3.6685243121
  0
LINE
  5
269
100
AcDbEntity
  8
0
100
AcDbLine
 62
7
  6
BYLAYER
 10
6.3849350134
 20
4.6185652779
 11
6.3818031724
 21
4.0738047674
  0
LINE
  5
26A
100
AcDbEntity
  8
0
100
AcDbLine
 62
7
  6
BYLAYER
 10
6.3791346795
 20
3.6685243121
 11
6.3788126935
 21
3.6406319096
  0
LINE
  5
26B
100
AcDbEntity
  8
0
100
AcDbLine
 62
7
  6
BYLAYER
 10
6.3854127354
 20
4.6558641794
 11
6.3849350134
 21
4.6185652779
  0
LINE
  5
26C
100
AcDbEntity
  8
0
100
AcDbLine
 62
7
  6
BYLAYER
 10
6.3788126935
 20
3.6406319096
 11
6.3785138799
 21
3.6189891064
  0
LINE
  5
26D
100
AcDbEntity
  8
0
100
AcDbLine
 62
7
  6
BYLAYER
 10
6.3785138799
 20
3.6189891064
 11
6.378237225
 21
3.6026175381
  0
LWPOLYLINE
  5
26E
100
AcDbEntity
  8
0
100
AcDbPolyline
 62
7
  6
BYLAYER
 90
3
 70
0
 10
6.3857306562
 20
4.6739938019
 10
6.3857261719
 20
4.6737727295
 10
6.3854127354
 20
4.6558641794
  0
LINE
  5
26F
100
AcDbEntity
  8
0
100
AcDbLine
 62
7
  6
BYLAYER
 10
6.378237225
 20
3.6026175381
 11
6.3780196634
 21
3.5922756356
  0
LINE
  5
270
100
AcDbEntity
  8
0
100
AcDbLine
 62
7
  6
BYLAYER
 10
6.3780196634
 20
3.5922756356
 11
6.3778863087
 21
3.5871033921
  0
LINE
  5
271
100
AcDbEntity
  8
0
100
AcDbLine
 62
7
  6
BYLAYER
 10
6.3778863087
 20
3.5871033921
 11
6.3778008256
 21
3.584311913
  0
LINE
  5
272
100
AcDbEntity
  8
0
100
AcDbLine
 62
7
  6
BYLAYER
 10
6.3778008256
 20
3.584311913
 11
6.3777557584
 21
3.5830424829
  0
LINE
  5
273
100
AcDbEntity
  8
0
100
AcDbLine
 62
7
  6
BYLAYER
 10
6.3777557584
 20
3.5830424829
 11
6.3777402153
 21
3.5826498068
  0
LINE
  5
274
100
AcDbEntity
  8
0
100
AcDbLine
 62
7
  6
BYLAYER
 10
6.0911363636
 20
5.20148
 11
7.1929545455
 21
5.20148
  0
LINE
  5
275
100
AcDbEntity
  8
0
100
AcDbLine
 62
7
  6
BYLAYER
 10
6.9038322319
 20
3.8026981744
 11
7.0056818182
 21
3.8594376372
  0
LINE
  5
276
100
AcDbEntity
  8
0
100
AcDbLine
 62
7
  6
BYLAYER
 10
6.8978125703
 20
4.6945244143
 11
6.9767108556
 21
4.6505709091
  0
LINE
  5
277
100
AcDbEntity
  8
03___PRT_ALL_CURVES
100
AcDbLine
 62
7
  6
BYLAYER
 10
6.6420454545
 20
4.9492325038
 11
6.6420454545
 21
3.30024
  0
LWPOLYLINE
  5
278
100
AcDbEntity
  8
0
100
AcDbPolyline
 62
7
  6
BYLAYER
 90
69
 70
0
 10
6.8971881148
 20
4.7072112601
 10
6.8970761444
 20
4.7088646383
 10
6.8969487092
 20
4.7106085252
 10
6.8968031249
 20
4.7124521077
 10
6.8966355643
 20
4.7144131631
 10
6.8964421555
 20
4.7165029156
 10
6.8962168129
 20
4.7187483533
 10
6.8959525838
 20
4.7211735351
 10
6.8956421361
 20
4.7237950955
 10
6.8952752485
 20
4.726642338
 10
6.8948464989
 20
4.7296983554
 10
6.8943478335
 20
4.7329636538
 10
6.8937749824
 20
4.7364134496
 10
6.8931230047
 20
4.7400309609
 10
6.8923892404
 20
4.7437905923
 10
6.8915716696
 20
4.7476691027
 10
6.890669953
 20
4.7516409632
 10
6.889687721
 20
4.755670489
 10
6.8886193837
 20
4.7597644231
 10
6.887462991
 20
4.7639145099
 10
6.8862120967
 20
4.7681284033
 10
6.8848608911
 20
4.7724092733
 10
6.8834031044
 20
4.7767600435
 10
6.8818317695
 20
4.781183943
 10
6.8801405488
 20
4.7856808218
 10
6.8783211955
 20
4.7902540763
 10
6.8763703422
 20
4.7948938442
 10
6.8742831127
 20
4.7995942754
 10
6.8720566577
 20
4.8043453382
 10
6.869688496
 20
4.8091379081
 10
6.8671763641
 20
4.8139634185
 10
6.8645190928
 20
4.8188119237
 10
6.8617133613
 20
4.8236779327
 10
6.8587569107
 20
4.8285541885
 10
6.8556466327
 20
4.8334349689
 10
6.852379815
 20
4.8383138809
 10
6.848953868
 20
4.8431843451
 10
6.8453663574
 20
4.8480395483
 10
6.8416150134
 20
4.8528724388
 10
6.8376977205
 20
4.8576757444
 10
6.8336125514
 20
4.8624419401
 10
6.8293583323
 20
4.8671631479
 10
6.8249332643
 20
4.8718331797
 10
6.820337141
 20
4.8764442479
 10
6.8155657285
 20
4.8809924249
 10
6.8106159761
 20
4.8854720364
 10
6.8054840139
 20
4.889877614
 10
6.8001661465
 20
4.8942029114
 10
6.7946586698
 20
4.8984410678
 10
6.7889579016
 20
4.9025845646
 10
6.7830601998
 20
4.9066251925
 10
6.7769620499
 20
4.9105540012
 10
6.7706602482
 20
4.914362031
 10
6.7641524961
 20
4.918040153
 10
6.7574358091
 20
4.9215790602
 10
6.7505077439
 20
4.9249684454
 10
6.7433658957
 20
4.9281972525
 10
6.7360082613
 20
4.9312534595
 10
6.7284332316
 20
4.9341240649
 10
6.7206396213
 20
4.9367950459
 10
6.7126268815
 20
4.9392512574
 10
6.7043951508
 20
4.9414770738
 10
6.6959459224
 20
4.9434574062
 10
6.6872815919
 20
4.9451764779
 10
6.6784052347
 20
4.946617564
 10
6.6693209795
 20
4.9477628806
 10
6.6600340639
 20
4.9485935569
 10
6.6505488107
 20
4.949089664
 10
6.6420454545
 20
4.9492325038
  0
LINE
  5
279
100
AcDbEntity
  8
0
100
AcDbLine
 62
7
  6
BYLAYER
 10
6.8973751754
 20
4.7041312708
 11
6.8971881148
 21
4.7072112601
  0
LINE
  5
27A
100
AcDbEntity
  8
0
100
AcDbLine
 62
7
  6
BYLAYER
 10
6.8975260686
 20
4.7012726846
 11
6.8973751754
 21
4.7041312708
  0
LINE
  5
27B
100
AcDbEntity
  8
0
100
AcDbLine
 62
7
  6
BYLAYER
 10
6.9063558231
 20
3.5825270436
 11
6.9063570804
 21
3.5825000133
  0
LINE
  5
27C
100
AcDbEntity
  8
0
100
AcDbLine
 62
7
  6
BYLAYER
 10
6.8976519041
 20
4.6985556753
 11
6.8975260686
 21
4.7012726846
  0
LINE
  5
27D
100
AcDbEntity
  8
0
100
AcDbLine
 62
7
  6
BYLAYER
 10
6.897760968
 20
4.6958971293
 11
6.8976519041
 21
4.6985556753
  0
LINE
  5
27E
100
AcDbEntity
  8
0
100
AcDbLine
 62
7
  6
BYLAYER
 10
6.9063548054
 20
3.5825520707
 11
6.9063258919
 21
3.5832891898
  0
LINE
  5
27F
100
AcDbEntity
  8
0
100
AcDbLine
 62
7
  6
BYLAYER
 10
6.8979053898
 20
4.6918510797
 11
6.897760968
 21
4.6958971293
  0
LINE
  5
280
100
AcDbEntity
  8
0
100
AcDbLine
 62
7
  6
BYLAYER
 10
6.9063258919
 20
3.5832891898
 11
6.9062731315
 21
3.5848289065
  0
LINE
  5
281
100
AcDbEntity
  8
0
100
AcDbLine
 62
7
  6
BYLAYER
 10
6.9062731315
 20
3.5848289065
 11
6.9061789046
 21
3.5880264325
  0
LINE
  5
282
100
AcDbEntity
  8
0
100
AcDbLine
 62
7
  6
BYLAYER
 10
6.8980783807
 20
4.6860618949
 11
6.8979053898
 21
4.6918510797
  0
LINE
  5
283
100
AcDbEntity
  8
0
100
AcDbLine
 62
7
  6
BYLAYER
 10
6.9061789046
 20
3.5880264325
 11
6.9060371799
 21
3.5937431782
  0
LINE
  5
284
100
AcDbEntity
  8
0
100
AcDbLine
 62
7
  6
BYLAYER
 10
6.8982813462
 20
4.6777296206
 11
6.8980783807
 21
4.6860618949
  0
LINE
  5
285
100
AcDbEntity
  8
0
100
AcDbLine
 62
7
  6
BYLAYER
 10
6.9060371799
 20
3.5937431782
 11
6.9058108247
 21
3.6049207694
  0
LINE
  5
286
100
AcDbEntity
  8
0
100
AcDbLine
 62
7
  6
BYLAYER
 10
6.8985607221
 20
4.6631550037
 11
6.8982813462
 21
4.6777296206
  0
LINE
  5
287
100
AcDbEntity
  8
0
100
AcDbLine
 62
7
  6
BYLAYER
 10
6.9058108247
 20
3.6049207694
 11
6.9055253035
 21
3.6224424711
  0
LINE
  5
288
100
AcDbEntity
  8
0
100
AcDbLine
 62
7
  6
BYLAYER
 10
6.8989690679
 20
4.6346525017
 11
6.8985607221
 21
4.6631550037
  0
LINE
  5
289
100
AcDbEntity
  8
0
100
AcDbLine
 62
7
  6
BYLAYER
 10
6.9055253035
 20
3.6224424711
 11
6.9052161729
 21
3.6456380893
  0
LINE
  5
28A
100
AcDbEntity
  8
0
100
AcDbLine
 62
7
  6
BYLAYER
 10
6.9052161729
 20
3.6456380893
 11
6.9048824953
 21
3.6755773553
  0
LINE
  5
28B
100
AcDbEntity
  8
0
100
AcDbLine
 62
7
  6
BYLAYER
 10
6.9048824953
 20
3.6755773553
 11
6.9045247826
 21
3.7133035651
  0
LINE
  5
28C
100
AcDbEntity
  8
0
100
AcDbLine
 62
7
  6
BYLAYER
 10
6.899786738
 20
4.5492758743
 11
6.8989690679
 21
4.6346525017
  0
LINE
  5
28D
100
AcDbEntity
  8
0
100
AcDbLine
 62
7
  6
BYLAYER
 10
6.9045247826
 20
3.7133035651
 11
6.904145242
 21
3.7596487858
  0
LINE
  5
28E
100
AcDbEntity
  8
0
100
AcDbLine
 62
7
  6
BYLAYER
 10
6.904145242
 20
3.7596487858
 11
6.9036944165
 21
3.8229895795
  0
LINE
  5
28F
100
AcDbEntity
  8
0
100
AcDbLine
 62
7
  6
BYLAYER
 10
6.9036944165
 20
3.8229895795
 11
6.903219326
 21
3.8991264034
  0
LINE
  5
290
100
AcDbEntity
  8
0
100
AcDbLine
 62
7
  6
BYLAYER
 10
6.903219326
 20
3.8991264034
 11
6.9027164103
 21
3.9895410121
  0
LINE
  5
291
100
AcDbEntity
  8
0
100
AcDbLine
 62
7
  6
BYLAYER
 10
6.9027164103
 20
3.9895410121
 11
6.9021191655
 21
4.1085569374
  0
LINE
  5
292
100
AcDbEntity
  8
0
100
AcDbLine
 62
7
  6
BYLAYER
 10
6.9021191655
 20
4.1085569374
 11
6.899786738
 21
4.5492758743
  0
LINE
  5
293
100
AcDbEntity
  8
0
100
AcDbLine
 62
7
  6
BYLAYER
 10
6.9094479738
 20
3.6505217957
 11
6.9111519457
 21
3.8067759193
  0
LINE
  5
294
100
AcDbEntity
  8
0
100
AcDbLine
 62
7
  6
BYLAYER
 10
6.9087820827
 20
3.6074439911
 11
6.9094479738
 21
3.6505217957
  0
LINE
  5
295
100
AcDbEntity
  8
0
100
AcDbLine
 62
7
  6
BYLAYER
 10
6.9084063956
 20
3.5885218872
 11
6.9087820827
 21
3.6074439911
  0
LINE
  5
296
100
AcDbEntity
  8
0
100
AcDbLine
 62
7
  6
BYLAYER
 10
6.9081314335
 20
3.5772318705
 11
6.9084063956
 21
3.5885218872
  0
LINE
  5
297
100
AcDbEntity
  8
0
100
AcDbLine
 62
7
  6
BYLAYER
 10
6.9079449703
 20
3.5707837902
 11
6.9081314335
 21
3.5772318705
  0
LINE
  5
298
100
AcDbEntity
  8
0
100
AcDbLine
 62
7
  6
BYLAYER
 10
6.9077489946
 20
3.5649949678
 11
6.9079449703
 21
3.5707837902
  0
LINE
  5
299
100
AcDbEntity
  8
0
100
AcDbLine
 62
7
  6
BYLAYER
 10
6.9075889843
 20
3.5609465815
 11
6.9077489946
 21
3.5649949678
  0
LINE
  5
29A
100
AcDbEntity
  8
02___PRT_ALL_AXES
100
AcDbLine
 62
7
  6
BYLAYER
 10
6.9511363636
 20
5.0651163636
 11
6.9337751906
 21
4.6744899711
  0
LINE
  5
29B
100
AcDbEntity
  8
0
100
AcDbLine
 62
7
  6
BYLAYER
 10
6.9074712879
 20
3.558309099
 11
6.9075889843
 21
3.5609465815
  0
LINE
  5
29C
100
AcDbEntity
  8
0
100
AcDbLine
 62
7
  6
BYLAYER
 10
6.9073396238
 20
3.5556528653
 11
6.9074712879
 21
3.558309099
  0
LINE
  5
29D
100
AcDbEntity
  8
0
100
AcDbLine
 62
7
  6
BYLAYER
 10
6.9071868738
 20
3.5528996401
 11
6.9073396238
 21
3.5556528653
  0
LINE
  5
29E
100
AcDbEntity
  8
0
100
AcDbLine
 62
7
  6
BYLAYER
 10
7.0056818182
 20
3.8594376372
 11
7.0056818182
 21
4.6302432306
  0
LINE
  5
29F
100
AcDbEntity
  8
0
100
AcDbLine
 62
7
  6
BYLAYER
 10
7.1256818182
 20
4.9173890909
 11
7.1256818182
 21
3.57648
  0
LINE
  5
2A0
100
AcDbEntity
  8
0
100
AcDbLine
 62
7
  6
BYLAYER
 10
7.1929545455
 20
5.20148
 11
7.1929545455
 21
5.0651163636
  0
LINE
  5
2A1
100
AcDbEntity
  8
0
100
AcDbLine
 62
7
  6
BYLAYER
 10
7.2784090909
 20
4.9173890909
 11
7.2784090909
 21
3.57648
  0
LINE
  5
2A2
100
AcDbEntity
  8
0
100
AcDbLine
 62
7
  6
BYLAYER
 10
3.7215909091
 20
12.0757148186
 11
3.7215909091
 21
13.4984420905
  0
LINE
  5
2A3
100
AcDbEntity
  8
0
100
AcDbLine
 62
7
  6
BYLAYER
 10
3.7806818182
 20
11.9688966374
 11
3.7806818182
 21
13.6052602717
  0
LINE
  5
2A4
100
AcDbEntity
  8
0
100
AcDbLine
 62
7
  6
BYLAYER
 10
4.9488636364
 20
11.4120784545
 11
5.1306818182
 21
11.4120784545
  0
LINE
  5
2A5
100
AcDbEntity
  8
0
100
AcDbLine
 62
7
  6
BYLAYER
 10
4.9147727273
 20
11.4348057273
 11
4.9261363636
 21
11.4348057273
  0
LINE
  5
2A6
100
AcDbEntity
  8
0
100
AcDbLine
 62
7
  6
BYLAYER
 10
5.1534090909
 20
11.4348057273
 11
5.1647727273
 21
11.4348057273
  0
LWPOLYLINE
  5
2A7
100
AcDbEntity
  8
0
100
AcDbPolyline
 62
7
  6
BYLAYER
 90
71
 70
0
 10
6.6820542974
 20
11.9195247018
 10
6.6899124948
 20
11.9208744982
 10
6.6976327162
 20
11.9224441659
 10
6.7052102543
 20
11.9242243961
 10
6.7126408813
 20
11.9262061522
 10
6.7199208039
 20
11.9283805653
 10
6.7270469773
 20
11.9307380434
 10
6.7340168384
 20
11.9332686475
 10
6.7408281847
 20
11.9359627852
 10
6.747479226
 20
11.9388112449
 10
6.7539684686
 20
11.9418051502
 10
6.7602947284
 20
11.9449359612
 10
6.7664571049
 20
11.9481954604
 10
6.7724549684
 20
11.9515757433
 10
6.7782879446
 20
11.9550692093
 10
6.7839559055
 20
11.9586685481
 10
6.789459192
 20
11.9623663831
 10
6.7947986915
 20
11.9661550029
 10
6.7999756832
 20
11.9700271227
 10
6.8049908512
 20
11.9739752206
 10
6.8098453903
 20
11.9779923221
 10
6.8145400324
 20
11.9820712037
 10
6.8190758488
 20
11.9862050095
 10
6.8234540601
 20
11.9903871005
 10
6.8276760531
 20
11.9946110703
 10
6.8317433685
 20
11.9988707341
 10
6.8356576129
 20
12.0031600329
 10
6.8394208678
 20
12.0074734853
 10
6.8430349322
 20
12.0118048962
 10
6.8465041573
 20
12.0161506445
 10
6.8498320848
 20
12.0205065023
 10
6.8530230612
 20
12.0248697224
 10
6.8560810855
 20
12.0292376102
 10
6.859010054
 20
12.0336078133
 10
6.8618137359
 20
12.0379782756
 10
6.8644957751
 20
12.042347226
 10
6.867059681
 20
12.0467131514
 10
6.869508856
 20
12.0510748336
 10
6.8718467414
 20
12.0554316271
 10
6.8740759212
 20
12.0597817382
 10
6.8761996538
 20
12.064125087
 10
6.878218837
 20
12.0684570124
 10
6.8801351852
 20
12.0727741474
 10
6.881950625
 20
12.0770727988
 10
6.8836672065
 20
12.081349346
 10
6.8852871654
 20
12.0856005872
 10
6.8868127507
 20
12.0898233463
 10
6.8882462737
 20
12.0940146026
 10
6.8895901508
 20
12.0981716472
 10
6.8908465901
 20
12.1022910931
 10
6.8920186094
 20
12.1063722873
 10
6.8931066114
 20
12.1104050782
 10
6.894113826
 20
12.1143887583
 10
6.8950370095
 20
12.1182947852
 10
6.8958761042
 20
12.1221018298
 10
6.8966318662
 20
12.1257871779
 10
6.8973054749
 20
12.1293246071
 10
6.8979019252
 20
12.1327037031
 10
6.8984242394
 20
12.1359004703
 10
6.8988820035
 20
12.138930947
 10
6.8992823697
 20
12.1418018638
 10
6.8996319015
 20
12.1445201981
 10
6.8999368036
 20
12.1470952968
 10
6.9002019427
 20
12.1495301965
 10
6.9004325737
 20
12.1518360854
 10
6.9006313649
 20
12.1540018179
 10
6.9008012066
 20
12.1560177996
 10
6.9009463021
 20
12.1578924345
 10
6.901069745
 20
12.1596254112
 10
6.9011753917
 20
12.161233043
 10
6.9013447757
 20
12.1641188589
  0
LWPOLYLINE
  5
2A8
100
AcDbEntity
  8
0
100
AcDbPolyline
 62
7
  6
BYLAYER
 90
3
 70
0
 10
6.6711301875
 20
11.9180562789
 10
6.6740633161
 20
11.9184043596
 10
6.6820542974
 20
11.9195247018
  0
LINE
  5
2A9
100
AcDbEntity
  8
0
100
AcDbLine
 62
7
  6
BYLAYER
 10
4.9488636364
 20
11.9311413308
 11
5.1306818182
 21
11.9311413308
  0
LINE
  5
2AA
100
AcDbEntity
  8
0
100
AcDbLine
 62
7
  6
BYLAYER
 10
4.9147727273
 20
11.9601408203
 11
5.1647727273
 21
11.9601408203
  0
LINE
  5
2AB
100
AcDbEntity
  8
0
100
AcDbLine
 62
7
  6
BYLAYER
 10
3.7806818182
 20
11.9688966364
 11
5.8352272727
 21
11.9688966364
  0
LINE
  5
2AC
100
AcDbEntity
  8
0
100
AcDbLine
 62
7
  6
BYLAYER
 10
4.9488636364
 20
11.9803403023
 11
5.1306818182
 21
11.9803403023
  0
LINE
  5
2AD
100
AcDbEntity
  8
0
100
AcDbLine
 62
7
  6
BYLAYER
 10
4.9147727273
 20
11.9688966364
 11
4.9147727273
 21
11.4348057273
  0
LINE
  5
2AE
100
AcDbEntity
  8
0
100
AcDbLine
 62
7
  6
BYLAYER
 10
4.9261363636
 20
11.9768264786
 11
4.9261363636
 21
11.9688966364
  0
LINE
  5
2AF
100
AcDbEntity
  8
0
100
AcDbLine
 62
7
  6
BYLAYER
 10
4.9261363636
 20
11.8897800305
 11
4.9261363636
 21
11.4348057273
  0
LINE
  5
2B0
100
AcDbEntity
  8
0
100
AcDbLine
 62
7
  6
BYLAYER
 10
5.8943181818
 20
12.0302602727
 11
5.8352272727
 21
12.0302602727
  0
LINE
  5
2B1
100
AcDbEntity
  8
0
100
AcDbLine
 62
7
  6
BYLAYER
 10
3.7806818182
 20
12.0302602727
 11
3.7670454545
 21
12.0302602727
  0
LINE
  5
2B2
100
AcDbEntity
  8
0
100
AcDbLine
 62
7
  6
BYLAYER
 10
5.9943181818
 20
12.0711693636
 11
5.9352272727
 21
12.0711693636
  0
LINE
  5
2B3
100
AcDbEntity
  8
0
100
AcDbLine
 62
7
  6
BYLAYER
 10
7.1256818182
 20
12.1166239091
 11
7.2784090909
 21
12.1166239091
  0
LINE
  5
2B4
100
AcDbEntity
  8
0
100
AcDbLine
 62
7
  6
BYLAYER
 10
6.6114660546
 20
11.9182294365
 11
6.609010562
 21
11.9185329439
  0
LINE
  5
2B5
100
AcDbEntity
  8
0
100
AcDbLine
 62
7
  6
BYLAYER
 10
6.6043898328
 20
11.9191685177
 11
6.6114660545
 21
11.9182294361
  0
LINE
  5
2B6
100
AcDbEntity
  8
0
100
AcDbLine
 62
7
  6
BYLAYER
 10
7.1256818182
 20
12.4100801859
 11
7.0056818182
 21
12.3995815463
  0
LINE
  5
2B7
100
AcDbEntity
  8
0
100
AcDbLine
 62
7
  6
BYLAYER
 10
5.1534090909
 20
11.4348057273
 11
5.1534090909
 21
11.8897800305
  0
LINE
  5
2B8
100
AcDbEntity
  8
0
100
AcDbLine
 62
7
  6
BYLAYER
 10
5.1534090909
 20
11.9688966364
 11
5.1534090909
 21
11.9768264786
  0
LINE
  5
2B9
100
AcDbEntity
  8
0
100
AcDbLine
 62
7
  6
BYLAYER
 10
5.1647727273
 20
11.9688966364
 11
5.1647727273
 21
11.4348057273
  0
LINE
  5
2BA
100
AcDbEntity
  8
0
100
AcDbLine
 62
7
  6
BYLAYER
 10
6.3551363636
 20
12.2616239091
 11
6.3839916458
 21
12.2592507364
  0
LINE
  5
2BB
100
AcDbEntity
  8
0
100
AcDbLine
 62
7
  6
BYLAYER
 10
7.1256818182
 20
12.7302602727
 11
6.9695676548
 21
12.7302602727
  0
LINE
  5
2BC
100
AcDbEntity
  8
0
100
AcDbLine
 62
7
  6
BYLAYER
 10
7.1256818182
 20
12.8438966364
 11
6.9695676548
 21
12.8438966364
  0
LINE
  5
2BD
100
AcDbEntity
  8
0
100
AcDbLine
 62
7
  6
BYLAYER
 10
5.8352272727
 20
13.6052602717
 11
5.8352272727
 21
11.9688966374
  0
LINE
  5
2BE
100
AcDbEntity
  8
0
100
AcDbLine
 62
7
  6
BYLAYER
 10
5.8943181818
 20
12.0302602727
 11
5.8943181818
 21
13.5438966364
  0
LINE
  5
2BF
100
AcDbEntity
  8
0
100
AcDbLine
 62
7
  6
BYLAYER
 10
5.9352272727
 20
12.0711693636
 11
5.9352272727
 21
13.5029875455
  0
LINE
  5
2C0
100
AcDbEntity
  8
0
100
AcDbLine
 62
7
  6
BYLAYER
 10
5.9943181818
 20
13.502987545
 11
5.9943181818
 21
12.0711693641
  0
LINE
  5
2C1
100
AcDbEntity
  8
0
100
AcDbLine
 62
7
  6
BYLAYER
 10
6.0394204557
 20
13.4013682273
 11
6.0394204557
 21
13.3567311423
  0
LINE
  5
2C2
100
AcDbEntity
  8
0
100
AcDbLine
 62
7
  6
BYLAYER
 10
6.0394204557
 20
12.2174257668
 11
6.0394204557
 21
12.1727886818
  0
LINE
  5
2C3
100
AcDbEntity
  8
0
100
AcDbLine
 62
7
  6
BYLAYER
 10
7.1256818182
 20
13.1640767232
 11
7.0530765898
 21
13.1704288576
  0
LINE
  5
2C4
100
AcDbEntity
  8
0
100
AcDbLine
 62
7
  6
BYLAYER
 10
5.9943181818
 20
12.1507148182
 11
6.0394204557
 21
12.1727886818
  0
LINE
  5
2C5
100
AcDbEntity
  8
0
100
AcDbLine
 62
7
  6
BYLAYER
 10
6.3100340989
 20
12.3052318636
 11
6.3551363728
 21
12.3273057273
  0
LINE
  5
2C6
100
AcDbEntity
  8
0
100
AcDbLine
 62
7
  6
BYLAYER
 10
7.1870623408
 20
13.457533
 11
7.2784090909
 21
13.457533
  0
LINE
  5
2C7
100
AcDbEntity
  8
0
100
AcDbLine
 62
7
  6
BYLAYER
 10
5.9943181818
 20
13.5029875455
 11
5.9352272727
 21
13.5029875455
  0
LWPOLYLINE
  5
2C8
100
AcDbEntity
  8
0
100
AcDbPolyline
 62
7
  6
BYLAYER
 90
63
 70
0
 10
6.3829065503
 20
12.1613755908
 10
6.3830014831
 20
12.159915444
 10
6.3831119011
 20
12.1583380057
 10
6.3832413832
 20
12.1566247997
 10
6.3833947586
 20
12.1547507079
 10
6.3835778284
 20
12.1526909025
 10
6.3837969758
 20
12.1504264685
 10
6.3840604365
 20
12.1479323262
 10
6.3843756951
 20
12.1452029529
 10
6.3847534512
 20
12.1422159177
 10
6.3851990869
 20
12.1389986862
 10
6.3857195549
 20
12.1355651282
 10
6.3863205782
 20
12.1319354282
 10
6.3870079323
 20
12.1281264576
 10
6.3877849654
 20
12.1241646322
 10
6.3886530921
 20
12.1200796066
 10
6.3896170936
 20
12.1158802159
 10
6.3906790825
 20
12.1115847301
 10
6.3918444255
 20
12.107196046
 10
6.393117511
 20
12.10272085
 10
6.3945020051
 20
12.0981676773
 10
6.3960010805
 20
12.0935456592
 10
6.3976186583
 20
12.0888608275
 10
6.3993578365
 20
12.0841211335
 10
6.4012228491
 20
12.0793310372
 10
6.4032174717
 20
12.0744962207
 10
6.4053455098
 20
12.0696222235
 10
6.4076105972
 20
12.064714853
 10
6.4100158649
 20
12.0597799862
 10
6.4125640808
 20
12.0548235327
 10
6.4152577507
 20
12.0498517089
 10
6.418098457
 20
12.0448721294
 10
6.421090557
 20
12.0398874808
 10
6.4242367121
 20
12.0349036384
 10
6.4275437152
 20
12.0299204268
 10
6.431017634
 20
12.0249399275
 10
6.4346651081
 20
12.0199643987
 10
6.4384930198
 20
12.0149968195
 10
6.4425085474
 20
12.0100408424
 10
6.4467194467
 20
12.0051005104
 10
6.4511323631
 20
12.0001817384
 10
6.4557550627
 20
11.9952890045
 10
6.4605902066
 20
11.9904327154
 10
6.4656418076
 20
11.9856220612
 10
6.4709122299
 20
11.9808680611
 10
6.4764038547
 20
11.9761818401
 10
6.4821187358
 20
11.9715749815
 10
6.4880583973
 20
11.9670596774
 10
6.4942247005
 20
11.962648089
 10
6.5006184836
 20
11.9583533866
 10
6.5072420988
 20
11.9541878495
 10
6.5140962852
 20
11.9501637275
 10
6.5211813853
 20
11.9462932095
 10
6.528497183
 20
11.9425891505
 10
6.5360429578
 20
11.9390650409
 10
6.5438174421
 20
11.935735035
 10
6.551818776
 20
11.9326139787
 10
6.560044525
 20
11.9297174157
 10
6.568491382
 20
11.9270617004
 10
6.5771552077
 20
11.9246635165
 10
6.5860306662
 20
11.9225382396
 10
6.5951113049
 20
11.9207012612
 10
6.6043898328
 20
11.9191685177
  0
LINE
  5
2C9
100
AcDbEntity
  8
0
100
AcDbLine
 62
7
  6
BYLAYER
 10
6.3827512692
 20
12.1640246948
 11
6.3829065503
 21
12.1613755908
  0
LINE
  5
2CA
100
AcDbEntity
  8
0
100
AcDbLine
 62
7
  6
BYLAYER
 10
6.3826290499
 20
12.1664036401
 11
6.3827512692
 21
12.1640246948
  0
LINE
  5
2CB
100
AcDbEntity
  8
0
100
AcDbLine
 62
7
  6
BYLAYER
 10
6.3825288367
 20
12.1686063869
 11
6.3826290499
 21
12.1664036401
  0
LINE
  5
2CC
100
AcDbEntity
  8
0
100
AcDbLine
 62
7
  6
BYLAYER
 10
6.3824049996
 20
12.1717284101
 11
6.3825288367
 21
12.1686063869
  0
LINE
  5
2CD
100
AcDbEntity
  8
0
100
AcDbLine
 62
7
  6
BYLAYER
 10
6.3823010641
 20
12.1747683773
 11
6.3824049996
 21
12.1717284101
  0
LINE
  5
2CE
100
AcDbEntity
  8
0
100
AcDbLine
 62
7
  6
BYLAYER
 10
6.3821792845
 20
12.1789113507
 11
6.3823010641
 21
12.1747683773
  0
LINE
  5
2CF
100
AcDbEntity
  8
0
100
AcDbLine
 62
7
  6
BYLAYER
 10
6.382013028
 20
12.1857209417
 11
6.3821792845
 21
12.1789113507
  0
LINE
  5
2D0
100
AcDbEntity
  8
0
100
AcDbLine
 62
7
  6
BYLAYER
 10
6.3817742999
 20
12.1980283701
 11
6.382013028
 21
12.1857209417
  0
LINE
  5
2D1
100
AcDbEntity
  8
0
100
AcDbLine
 62
7
  6
BYLAYER
 10
6.381367827
 20
12.225919708
 11
6.3817742999
 21
12.1980283701
  0
LINE
  5
2D2
100
AcDbEntity
  8
0
100
AcDbLine
 62
7
  6
BYLAYER
 10
6.3809868266
 20
12.2594978646
 11
6.381367827
 21
12.225919708
  0
LINE
  5
2D3
100
AcDbEntity
  8
0
100
AcDbLine
 62
7
  6
BYLAYER
 10
6.3100340989
 20
12.3636066172
 11
6.3100340989
 21
12.3052318636
  0
LINE
  5
2D4
100
AcDbEntity
  8
0
100
AcDbLine
 62
7
  6
BYLAYER
 10
6.3551363636
 20
12.2616239091
 11
6.3551363636
 21
13.06688143
  0
LINE
  5
2D5
100
AcDbEntity
  8
0
100
AcDbLine
 62
7
  6
BYLAYER
 10
6.3855642607
 20
12.461413996
 11
6.3847823047
 21
12.3534924263
  0
LINE
  5
2D6
100
AcDbEntity
  8
0
100
AcDbLine
 62
7
  6
BYLAYER
 10
6.3847823047
 20
12.3534924263
 11
6.3842664216
 21
12.2894695811
  0
LINE
  5
2D7
100
AcDbEntity
  8
0
100
AcDbLine
 62
7
  6
BYLAYER
 10
6.3842664216
 20
12.2894695811
 11
6.383930238
 21
12.2529536104
  0
LINE
  5
2D8
100
AcDbEntity
  8
0
100
AcDbLine
 62
7
  6
BYLAYER
 10
6.383930238
 20
12.2529536104
 11
6.3836069276
 21
12.2231429621
  0
LINE
  5
2D9
100
AcDbEntity
  8
0
100
AcDbLine
 62
7
  6
BYLAYER
 10
6.3836069276
 20
12.2231429621
 11
6.3833630883
 21
12.2049931367
  0
LINE
  5
2DA
100
AcDbEntity
  8
0
100
AcDbLine
 62
7
  6
BYLAYER
 10
6.3833630883
 20
12.2049931367
 11
6.3831885574
 21
12.1948233728
  0
LINE
  5
2DB
100
AcDbEntity
  8
0
100
AcDbLine
 62
7
  6
BYLAYER
 10
6.3831885574
 20
12.1948233728
 11
6.383106103
 21
12.1910295248
  0
LINE
  5
2DC
100
AcDbEntity
  8
0
100
AcDbLine
 62
7
  6
BYLAYER
 10
6.383106103
 20
12.1910295248
 11
6.3830627744
 21
12.1893824756
  0
LINE
  5
2DD
100
AcDbEntity
  8
0
100
AcDbLine
 62
7
  6
BYLAYER
 10
6.3830627744
 20
12.1893824756
 11
6.3830512915
 21
12.1890087037
  0
LINE
  5
2DE
100
AcDbEntity
  8
0
100
AcDbLine
 62
7
  6
BYLAYER
 10
5.9352272727
 20
12.0711693636
 11
5.8943181818
 21
12.0302602727
  0
LINE
  5
2DF
100
AcDbEntity
  8
0
100
AcDbLine
 62
7
  6
BYLAYER
 10
5.8943181818
 20
13.5438966364
 11
5.8352272727
 21
13.5438966364
  0
LINE
  5
2E0
100
AcDbEntity
  8
0
100
AcDbLine
 62
7
  6
BYLAYER
 10
3.7806818182
 20
13.5438966364
 11
3.7670454545
 21
13.5438966364
  0
LINE
  5
2E1
100
AcDbEntity
  8
0
100
AcDbLine
 62
7
  6
BYLAYER
 10
3.7806818182
 20
13.6052602727
 11
5.8352272727
 21
13.6052602727
  0
LINE
  5
2E2
100
AcDbEntity
  8
0
100
AcDbLine
 62
7
  6
BYLAYER
 10
5.9943181818
 20
13.4234420909
 11
6.0394204557
 21
13.4013682273
  0
LINE
  5
2E3
100
AcDbEntity
  8
0
100
AcDbLine
 62
7
  6
BYLAYER
 10
5.9352272727
 20
13.5029875455
 11
5.8943181818
 21
13.5438966364
  0
LINE
  5
2E4
100
AcDbEntity
  8
0
100
AcDbLine
 62
7
  6
BYLAYER
 10
7.0056818182
 20
12.3995815463
 11
6.8994094481
 21
12.3403781915
  0
LINE
  5
2E5
100
AcDbEntity
  8
03___PRT_ALL_CURVES
100
AcDbLine
 62
7
  6
BYLAYER
 10
6.6420454545
 20
12.9862256532
 11
6.6420454545
 21
11.9164166364
  0
LINE
  5
2E6
100
AcDbEntity
  8
0
100
AcDbLine
 62
7
  6
BYLAYER
 10
6.9010373831
 20
12.189069474
 11
6.9010401704
 21
12.1889922306
  0
LINE
  5
2E7
100
AcDbEntity
  8
0
100
AcDbLine
 62
7
  6
BYLAYER
 10
6.9010386349
 20
12.189038691
 11
6.9010135429
 21
12.1899029941
  0
LINE
  5
2E8
100
AcDbEntity
  8
0
100
AcDbLine
 62
7
  6
BYLAYER
 10
6.9010135429
 20
12.1899029941
 11
6.9009557737
 21
12.1922784853
  0
LINE
  5
2E9
100
AcDbEntity
  8
0
100
AcDbLine
 62
7
  6
BYLAYER
 10
6.9009557737
 20
12.1922784853
 11
6.9008319919
 21
12.1986037896
  0
LINE
  5
2EA
100
AcDbEntity
  8
0
100
AcDbLine
 62
7
  6
BYLAYER
 10
6.9008319919
 20
12.1986037896
 11
6.9006033559
 21
12.2137361095
  0
LINE
  5
2EB
100
AcDbEntity
  8
0
100
AcDbLine
 62
7
  6
BYLAYER
 10
6.9006033559
 20
12.2137361095
 11
6.9003064364
 21
12.2387877705
  0
LINE
  5
2EC
100
AcDbEntity
  8
0
100
AcDbLine
 62
7
  6
BYLAYER
 10
6.9003064364
 20
12.2387877705
 11
6.89994352
 21
12.2759834327
  0
LINE
  5
2ED
100
AcDbEntity
  8
0
100
AcDbLine
 62
7
  6
BYLAYER
 10
6.89994352
 20
12.2759834327
 11
6.8994719267
 21
12.3323767726
  0
LINE
  5
2EE
100
AcDbEntity
  8
0
100
AcDbLine
 62
7
  6
BYLAYER
 10
6.8994719267
 20
12.3323767726
 11
6.8987950118
 21
12.4234559599
  0
LINE
  5
2EF
100
AcDbEntity
  8
0
100
AcDbLine
 62
7
  6
BYLAYER
 10
6.8987950118
 20
12.4234559599
 11
6.8968285835
 21
12.6999005434
  0
LINE
  5
2F0
100
AcDbEntity
  8
0
100
AcDbLine
 62
7
  6
BYLAYER
 10
6.9027495233
 20
12.2280264434
 11
6.9038493296
 21
12.3428516084
  0
LINE
  5
2F1
100
AcDbEntity
  8
0
100
AcDbLine
 62
7
  6
BYLAYER
 10
6.9023228602
 20
12.1983915979
 11
6.9027495233
 21
12.2280264434
  0
LINE
  5
2F2
100
AcDbEntity
  8
0
100
AcDbLine
 62
7
  6
BYLAYER
 10
6.9020784503
 20
12.1857466861
 11
6.9023228602
 21
12.1983915979
  0
LINE
  5
2F3
100
AcDbEntity
  8
0
100
AcDbLine
 62
7
  6
BYLAYER
 10
6.9019218388
 20
12.1792900206
 11
6.9020784503
 21
12.1857466861
  0
LINE
  5
2F4
100
AcDbEntity
  8
0
100
AcDbLine
 62
7
  6
BYLAYER
 10
6.9017861743
 20
12.1746536541
 11
6.9019218388
 21
12.1792900206
  0
LINE
  5
2F5
100
AcDbEntity
  8
0
100
AcDbLine
 62
7
  6
BYLAYER
 10
6.9016704029
 20
12.1713097602
 11
6.9017861743
 21
12.1746536541
  0
LINE
  5
2F6
100
AcDbEntity
  8
0
100
AcDbLine
 62
7
  6
BYLAYER
 10
6.9015808477
 20
12.1690489876
 11
6.9016704029
 21
12.1713097602
  0
LINE
  5
2F7
100
AcDbEntity
  8
0
100
AcDbLine
 62
7
  6
BYLAYER
 10
6.9014751872
 20
12.1666822138
 11
6.9015808477
 21
12.1690489876
  0
LINE
  5
2F8
100
AcDbEntity
  8
0
100
AcDbLine
 62
7
  6
BYLAYER
 10
6.9013447757
 20
12.1641188589
 11
6.9014751872
 21
12.1666822138
  0
LINE
  5
2F9
100
AcDbEntity
  8
0
100
AcDbLine
 62
7
  6
BYLAYER
 10
7.0056818182
 20
12.3995815463
 11
7.0056818182
 21
12.7302602727
  0
LINE
  5
2FA
100
AcDbEntity
  8
0
100
AcDbLine
 62
7
  6
BYLAYER
 10
7.0056818182
 20
12.8438966364
 11
7.0056818182
 21
13.1233865081
  0
LINE
  5
2FB
100
AcDbEntity
  8
0
100
AcDbLine
 62
7
  6
BYLAYER
 10
7.1256818182
 20
12.1166239091
 11
7.1256818182
 21
13.2733371053
  0
LINE
  5
2FC
100
AcDbEntity
  8
0
100
AcDbLine
 62
7
  6
BYLAYER
 10
7.2784090909
 20
12.1166239091
 11
7.2784090909
 21
13.457533
  0
LINE
  5
2FD
100
AcDbEntity
  8
0
100
AcDbLine
 62
7
  6
BYLAYER
 10
15.1620454545
 20
4.3620969091
 11
15.1620454545
 21
4.1348241818
  0
LINE
  5
2FE
100
AcDbEntity
  8
0
100
AcDbLine
 62
7
  6
BYLAYER
 10
15.1847727273
 20
4.1120969091
 11
15.1935285434
 21
4.0961622238
  0
LINE
  5
2FF
100
AcDbEntity
  8
0
100
AcDbLine
 62
7
  6
BYLAYER
 10
15.8097727273
 20
3.5666423636
 11
15.8097727273
 21
3.5211878182
  0
LINE
  5
300
100
AcDbEntity
  8
0
100
AcDbLine
 62
7
  6
BYLAYER
 10
15.8097727273
 20
3.5211878182
 11
16.0071061467
 21
3.5211878182
  0
LINE
  5
301
100
AcDbEntity
  8
0
100
AcDbLine
 62
7
  6
BYLAYER
 10
17.2190513216
 20
3.5211878182
 11
17.2643181818
 21
3.5211878182
  0
LINE
  5
302
100
AcDbEntity
  8
0
100
AcDbLine
 62
7
  6
BYLAYER
 10
15.9563347417
 20
3.5666423636
 11
15.8097727273
 21
3.5666423636
  0
LINE
  5
303
100
AcDbEntity
  8
0
100
AcDbLine
 62
7
  6
BYLAYER
 10
15.6796573092
 20
4.3840268721
 11
15.1847727273
 21
4.1120969091
  0
LINE
  5
304
100
AcDbEntity
  8
0
100
AcDbLine
 62
7
  6
BYLAYER
 10
15.1935285434
 20
4.0961622238
 11
15.6755637881
 21
4.3610317127
  0
LINE
  5
305
100
AcDbEntity
  8
0
100
AcDbLine
 62
7
  6
BYLAYER
 10
15.6763270667
 20
4.1120969091
 11
15.2225280328
 21
4.1120969091
  0
LINE
  5
306
100
AcDbEntity
  8
0
100
AcDbLine
 62
7
  6
BYLAYER
 10
17.5597727273
 20
4.2484605455
 11
17.2074999959
 21
4.2484603373
  0
LINE
  5
307
100
AcDbEntity
  8
02___PRT_ALL_AXES
100
AcDbLine
 62
7
  6
BYLAYER
 10
16.5938636364
 20
4.9164330729
 11
16.5938636364
 21
4.9357332727
  0
LINE
  5
308
100
AcDbEntity
  8
0
100
AcDbLine
 62
7
  6
BYLAYER
 10
15.1847727273
 20
4.3848241818
 11
15.6798251263
 21
4.3848241818
  0
LINE
  5
309
100
AcDbEntity
  8
0
100
AcDbLine
 62
7
  6
BYLAYER
 10
16.7361363636
 20
5.0666423636
 11
16.7361363636
 21
5.203006
  0
LINE
  5
30A
100
AcDbEntity
  8
0
100
AcDbLine
 62
7
  6
BYLAYER
 10
16.9924496753
 20
4.7405019423
 11
16.9779545455
 21
5.0666423636
  0
LINE
  5
30B
100
AcDbEntity
  8
0
100
AcDbLine
 62
7
  6
BYLAYER
 10
17.2643181818
 20
3.5211878182
 11
17.2643181818
 21
3.5615097214
  0
LINE
  5
30C
100
AcDbEntity
  8
0
100
AcDbLine
 62
7
  6
BYLAYER
 10
16.4865913376
 20
4.9420969091
 11
16.5875
 21
4.9420969091
  0
LINE
  5
30D
100
AcDbEntity
  8
0
100
AcDbLine
 62
7
  6
BYLAYER
 10
17.8379545455
 20
5.0666423636
 11
16.7361363636
 21
5.0666423636
  0
LINE
  5
30E
100
AcDbEntity
  8
0
100
AcDbLine
 62
7
  6
BYLAYER
 10
17.8379545455
 20
5.203006
 11
16.7361363636
 21
5.203006
  0
LINE
  5
30F
100
AcDbEntity
  8
0
100
AcDbLine
 62
7
  6
BYLAYER
 10
17.5597727273
 20
4.2484605455
 11
17.5961363636
 21
5.0666423636
  0
LINE
  5
310
100
AcDbEntity
  8
0
100
AcDbLine
 62
7
  6
BYLAYER
 10
17.8379545455
 20
5.0666423636
 11
17.8379545455
 21
5.203006
  0
LINE
  5
311
100
AcDbEntity
  8
0
100
AcDbLine
 62
7
  6
BYLAYER
 10
15.6850712356
 20
11.3761082964
 11
15.69205147
 21
11.3730618035
  0
LINE
  5
312
100
AcDbEntity
  8
0
100
AcDbLine
 62
7
  6
BYLAYER
 10
15.9153364841
 20
11.3761082964
 11
15.9223167185
 21
11.3730618035
  0
LINE
  5
313
100
AcDbEntity
  8
0
100
AcDbLine
 62
7
  6
BYLAYER
 10
15.5317520612
 20
11.5266276322
 11
15.5456176006
 21
11.4983726336
  0
LINE
  5
314
100
AcDbEntity
  8
0
100
AcDbLine
 62
7
  6
BYLAYER
 10
15.8770039078
 20
11.3675085229
 11
15.7095382725
 21
11.3675085229
  0
LINE
  5
315
100
AcDbEntity
  8
0
100
AcDbLine
 62
7
  6
BYLAYER
 10
15.69205147
 20
11.3730618035
 11
15.6947439779
 21
11.3730618035
  0
LINE
  5
316
100
AcDbEntity
  8
0
100
AcDbLine
 62
7
  6
BYLAYER
 10
15.8917775557
 20
11.3730618035
 11
15.9223167185
 21
11.3730618035
  0
LINE
  5
317
100
AcDbEntity
  8
0
100
AcDbLine
 62
7
  6
BYLAYER
 10
15.6850712356
 20
11.3761082964
 11
15.6918183279
 21
11.3761082964
  0
LINE
  5
318
100
AcDbEntity
  8
0
100
AcDbLine
 62
7
  6
BYLAYER
 10
15.8947129389
 20
11.3761082964
 11
15.9153364841
 21
11.3761082964
  0
LINE
  5
319
100
AcDbEntity
  8
0
100
AcDbLine
 62
7
  6
BYLAYER
 10
15.5456176006
 20
11.4983726336
 11
15.6311560878
 21
11.4983726336
  0
LINE
  5
31A
100
AcDbEntity
  8
0
100
AcDbLine
 62
7
  6
BYLAYER
 10
15.9342084269
 20
11.4983726336
 11
16.7178770476
 21
11.4983726336
  0
LINE
  5
31B
100
AcDbEntity
  8
0
100
AcDbLine
 62
7
  6
BYLAYER
 10
15.6891352804
 20
11.3802234613
 11
15.6198075834
 21
11.5214984541
  0
LWPOLYLINE
  5
31C
100
AcDbEntity
  8
0
100
AcDbPolyline
 62
7
  6
BYLAYER
 90
23
 70
0
 10
17.5801368173
 20
11.6330088444
 10
17.5972564086
 20
11.633410201
 10
17.6159864204
 20
11.6347697507
 10
17.6344982746
 20
11.6370638153
 10
17.6528286851
 20
11.6402783282
 10
17.6709872126
 20
11.6444063774
 10
17.6889974978
 20
11.6494536433
 10
17.7068776505
 20
11.6554347061
 10
17.7246524312
 20
11.6623730584
 10
17.7423541329
 20
11.6703061117
 10
17.7599675766
 20
11.6792612522
 10
17.7774915196
 20
11.6892793416
 10
17.7949141166
 20
11.7004034817
 10
17.8122226258
 20
11.7126834888
 10
17.8294195785
 20
11.7261871694
 10
17.8465277882
 20
11.7410099728
 10
17.8634690198
 20
11.7571688392
 10
17.8802263125
 20
11.7747353811
 10
17.8966750264
 20
11.7936615117
 10
17.9127320384
 20
11.8139153742
 10
17.9283393138
 20
11.8354742152
 10
17.9434409798
 20
11.8582975364
 10
17.9486396695
 20
11.8668863554
  0
LINE
  5
31D
100
AcDbEntity
  8
0
100
AcDbLine
 62
7
  6
BYLAYER
 10
15.5317520612
 20
11.5266276322
 11
15.6180210989
 21
11.5266276322
  0
LINE
  5
31E
100
AcDbEntity
  8
0
100
AcDbLine
 62
7
  6
BYLAYER
 10
15.9429398818
 20
11.5266276322
 11
16.7040115082
 21
11.5266276322
  0
LINE
  5
31F
100
AcDbEntity
  8
03___PRT_ALL_CURVES
100
AcDbLine
 62
7
  6
BYLAYER
 10
17.579794794
 20
11.6330092661
 11
17.5801362915
 21
11.6330088444
  0
LINE
  5
320
100
AcDbEntity
  8
0
100
AcDbLine
 62
7
  6
BYLAYER
 10
14.9262474048
 20
11.7019630903
 11
15.669096612
 21
11.7019630903
  0
LINE
  5
321
100
AcDbEntity
  8
0
100
AcDbLine
 62
7
  6
BYLAYER
 10
15.9971226364
 20
11.7019630903
 11
16.8186090833
 21
11.7019630903
  0
LINE
  5
322
100
AcDbEntity
  8
0
100
AcDbLine
 62
7
  6
BYLAYER
 10
16.8730354148
 20
11.7633267266
 11
16.8186090833
 21
11.7633267266
  0
LINE
  5
323
100
AcDbEntity
  8
0
100
AcDbLine
 62
7
  6
BYLAYER
 10
16.9651415142
 20
11.8042358175
 11
16.9107151827
 21
11.8042358175
  0
LINE
  5
324
100
AcDbEntity
  8
0
100
AcDbLine
 62
7
  6
BYLAYER
 10
15.9614286705
 20
11.964006069
 11
15.9544484361
 21
11.9670525618
  0
LINE
  5
325
100
AcDbEntity
  8
0
100
AcDbLine
 62
7
  6
BYLAYER
 10
18.0071964297
 20
11.849690363
 11
18.1478675633
 21
11.849690363
  0
LINE
  5
326
100
AcDbEntity
  8
0
100
AcDbLine
 62
7
  6
BYLAYER
 10
15.7534239406
 20
11.9344313222
 11
15.9208895759
 21
11.9344313222
  0
LINE
  5
327
100
AcDbEntity
  8
0
100
AcDbLine
 62
7
  6
BYLAYER
 10
15.7241831876
 20
11.9670525618
 11
15.9544484361
 21
11.9670525618
  0
LINE
  5
328
100
AcDbEntity
  8
0
100
AcDbLine
 62
7
  6
BYLAYER
 10
15.7653333547
 20
11.9729702005
 11
15.93279899
 21
11.9729702005
  0
LINE
  5
329
100
AcDbEntity
  8
0
100
AcDbLine
 62
7
  6
BYLAYER
 10
15.7241831876
 20
11.9670525618
 11
15.7168700466
 21
11.8565579812
  0
LINE
  5
32A
100
AcDbEntity
  8
0
100
AcDbLine
 62
7
  6
BYLAYER
 10
15.6857942157
 20
11.3870318354
 11
15.6850712356
 21
11.3761082964
  0
LINE
  5
32B
100
AcDbEntity
  8
0
100
AcDbLine
 62
7
  6
BYLAYER
 10
15.9387433721
 20
11.8879044033
 11
15.9079492901
 21
11.4226352152
  0
LINE
  5
32C
100
AcDbEntity
  8
0
100
AcDbLine
 62
7
  6
BYLAYER
 10
15.9544484361
 20
11.9670525618
 11
15.9153364841
 21
11.3761082964
  0
LINE
  5
32D
100
AcDbEntity
  8
0
100
AcDbLine
 62
7
  6
BYLAYER
 10
15.9223167185
 20
11.3730618035
 11
15.9614286705
 21
11.964006069
  0
LINE
  5
32E
100
AcDbEntity
  8
0
100
AcDbLine
 62
7
  6
BYLAYER
 10
15.5859348158
 20
11.7019630903
 11
15.5317520612
 21
11.5266276322
  0
LINE
  5
32F
100
AcDbEntity
  8
0
100
AcDbLine
 62
7
  6
BYLAYER
 10
15.7333859271
 20
11.9100033902
 11
15.6184964655
 21
11.538220956
  0
LINE
  5
330
100
AcDbEntity
  8
0
100
AcDbLine
 62
7
  6
BYLAYER
 10
16.7040115082
 20
11.5266276322
 11
16.7178770476
 21
11.4983726336
  0
LINE
  5
331
100
AcDbEntity
  8
0
100
AcDbLine
 62
7
  6
BYLAYER
 10
16.0303072487
 20
11.809348535
 11
15.9296298595
 21
11.4835563841
  0
LINE
  5
332
100
AcDbEntity
  8
0
100
AcDbLine
 62
7
  6
BYLAYER
 10
15.903974691
 20
11.4005362284
 11
15.8987180179
 21
11.3835256281
  0
LINE
  5
333
100
AcDbEntity
  8
0
100
AcDbLine
 62
7
  6
BYLAYER
 10
17.7588099019
 20
12.7265420849
 11
17.726526005
 21
12.7265420849
  0
LINE
  5
334
100
AcDbEntity
  8
0
100
AcDbLine
 62
7
  6
BYLAYER
 10
17.7728750691
 20
12.8155565064
 11
17.7540335417
 21
12.8155565064
  0
LINE
  5
335
100
AcDbEntity
  8
0
100
AcDbLine
 62
7
  6
BYLAYER
 10
17.2903619251
 20
13.0452816929
 11
17.3681083225
 21
13.0522280742
  0
LWPOLYLINE
  5
336
100
AcDbEntity
  8
0
100
AcDbPolyline
 62
7
  6
BYLAYER
 90
63
 70
0
 10
17.520987168
 20
13.0905589247
 10
17.5073075923
 20
13.0902656889
 10
17.4918095025
 20
13.0892243131
 10
17.4762579857
 20
13.0874182246
 10
17.4607039034
 20
13.0848398346
 10
17.4451952762
 20
13.0814851871
 10
17.4297690297
 20
13.0773509158
 10
17.4144666389
 20
13.0724370863
 10
17.3993167003
 20
13.0667446566
 10
17.3843465326
 20
13.0602776206
 10
17.3695919602
 20
13.0530449465
 10
17.3551311194
 20
13.0450829895
 10
17.3408484308
 20
13.0363172173
 10
17.3266728731
 20
13.0266687044
 10
17.3125876007
 20
13.0160734342
 10
17.2985033536
 20
13.0043924563
 10
17.2845990086
 20
12.9917008672
 10
17.2709727538
 20
12.9780367659
 10
17.2577020082
 20
12.9634399637
 10
17.2448926415
 20
12.9480088646
 10
17.232477537
 20
12.9316453765
 10
17.2204553322
 20
12.9143137095
 10
17.2087510824
 20
12.8958511913
 10
17.1972708473
 20
12.8760064308
 10
17.1861466509
 20
12.8548905588
 10
17.1753831949
 20
12.8324029111
 10
17.1652143367
 20
12.8089705657
 10
17.1558015233
 20
12.7850259651
 10
17.1471539756
 20
12.7607293409
 10
17.1393407635
 20
12.7364752616
 10
17.1322543051
 20
12.7121535755
 10
17.1258458094
 20
12.6877883348
 10
17.1200645346
 20
12.6633639298
 10
17.1148696265
 20
12.6388671235
 10
17.1102308966
 20
12.6143017156
 10
17.1061216261
 20
12.5896616403
 10
17.1025223527
 20
12.5649569135
 10
17.0994161907
 20
12.5401925783
 10
17.0967895275
 20
12.5153750222
 10
17.0946311856
 20
12.4905073288
 10
17.0929331742
 20
12.4656013575
 10
17.0916891291
 20
12.4406642122
 10
17.0908949175
 20
12.415711764
 10
17.0905477032
 20
12.3907578905
 10
17.0906460639
 20
12.3658150271
 10
17.0911898821
 20
12.3409010864
 10
17.0921811483
 20
12.316013006
 10
17.0936238804
 20
12.2911568927
 10
17.09552545
 20
12.266323999
 10
17.0978961823
 20
12.2415094504
 10
17.100749353
 20
12.216711513
 10
17.1041028593
 20
12.1919204153
 10
17.1079733704
 20
12.1671612233
 10
17.1123824934
 20
12.1424440755
 10
17.1173503983
 20
12.1178041768
 10
17.1229011425
 20
12.0932692313
 10
17.1290627989
 20
12.0688644879
 10
17.1358685985
 20
12.0446123918
 10
17.1433560529
 20
12.0205393475
 10
17.1515702726
 20
11.9966679302
 10
17.1605646595
 20
11.9730203993
 10
17.1704082577
 20
11.9496065689
 10
17.1807181274
 20
11.9273927719
  0
LINE
  5
337
100
AcDbEntity
  8
03___PRT_ALL_CURVES
100
AcDbLine
 62
7
  6
BYLAYER
 10
17.5198723043
 20
13.0905531371
 11
17.5190585053
 21
13.0905415435
  0
LINE
  5
338
100
AcDbEntity
  8
03___PRT_ALL_CURVES
100
AcDbLine
 62
7
  6
BYLAYER
 10
17.5209760294
 20
13.0905589246
 11
17.5198723043
 21
13.0905531371
  0
LINE
  5
339
100
AcDbEntity
  8
0
100
AcDbLine
 62
7
  6
BYLAYER
 10
17.5903166772
 20
13.0828721812
 11
17.6069535614
 21
13.0828721812
  0
LWPOLYLINE
  5
33A
100
AcDbEntity
  8
0
100
AcDbPolyline
 62
7
  6
BYLAYER
 90
27
 70
0
 10
17.1807166015
 20
11.9273959037
 10
17.1922287287
 20
11.9046674192
 10
17.2045771019
 20
11.8821369759
 10
17.2172466926
 20
11.8607949363
 10
17.2302403319
 20
11.8405800491
 10
17.2435589695
 20
11.8214440305
 10
17.2572095878
 20
11.8033369036
 10
17.2712061746
 20
11.7862074401
 10
17.2855399932
 20
11.7700389599
 10
17.3002077579
 20
11.7548103055
 10
17.3151943483
 20
11.7405142079
 10
17.3304789087
 20
11.7271477171
 10
17.3460506753
 20
11.7146986394
 10
17.3618864153
 20
11.7031653149
 10
17.3779821448
 20
11.6925302417
 10
17.394333814
 20
11.6827773341
 10
17.4109035265
 20
11.673911797
 10
17.427653971
 20
11.6659351014
 10
17.4445555746
 20
11.6588430178
 10
17.4615633966
 20
11.6526359673
 10
17.4786715551
 20
11.6472992717
 10
17.4958699117
 20
11.6428202341
 10
17.5131232254
 20
11.6391922275
 10
17.5304029114
 20
11.636406411
 10
17.5476754626
 20
11.634454446
 10
17.5649095501
 20
11.6333269653
 10
17.5801484501
 20
11.6330088444
  0
LINE
  5
33B
100
AcDbEntity
  8
0
100
AcDbLine
 62
7
  6
BYLAYER
 10
17.1807181261
 20
11.9273927746
 11
17.1807166002
 21
11.9273959065
  0
LINE
  5
33C
100
AcDbEntity
  8
0
100
AcDbLine
 62
7
  6
BYLAYER
 10
16.9448971198
 20
11.7867021198
 11
16.9456538497
 21
11.7698200469
  0
LINE
  5
33D
100
AcDbEntity
  8
0
100
AcDbLine
 62
7
  6
BYLAYER
 10
18.0071964297
 20
13.1905994539
 11
18.1478675633
 21
13.1905994539
  0
LINE
  5
33E
100
AcDbEntity
  8
0
100
AcDbLine
 62
7
  6
BYLAYER
 10
16.9651415142
 20
13.2360539994
 11
16.9107151827
 21
13.2360539994
  0
LINE
  5
33F
100
AcDbEntity
  8
0
100
AcDbLine
 62
7
  6
BYLAYER
 10
16.7581942627
 20
11.7019630903
 11
16.7040115082
 21
11.5266276322
  0
LINE
  5
340
100
AcDbEntity
  8
0
100
AcDbLine
 62
7
  6
BYLAYER
 10
16.7178770476
 20
11.4983726336
 11
16.7807912571
 21
11.7019630903
  0
LINE
  5
341
100
AcDbEntity
  8
0
100
AcDbLine
 62
7
  6
BYLAYER
 10
16.8730354148
 20
13.2769630903
 11
16.8186090833
 21
13.2769630903
  0
LINE
  5
342
100
AcDbEntity
  8
0
100
AcDbLine
 62
7
  6
BYLAYER
 10
14.9262474048
 20
13.3383267266
 11
16.8186090833
 21
13.3383267266
  0
LINE
  5
343
100
AcDbEntity
  8
0
100
AcDbLine
 62
7
  6
BYLAYER
 10
17.0164193502
 20
13.1427359274
 11
17.2376908795
 21
13.0225585432
  0
LINE
  5
344
100
AcDbEntity
  8
0
100
AcDbLine
 62
7
  6
BYLAYER
 10
16.9389146931
 20
11.9310209738
 11
17.0596096612
 21
12.3215900334
  0
LINE
  5
345
100
AcDbEntity
  8
0
100
AcDbLine
 62
7
  6
BYLAYER
 10
16.9575427261
 20
13.4582960771
 11
16.9991393443
 21
13.3735310814
  0
LINE
  5
346
100
AcDbEntity
  8
02___PRT_ALL_AXES
100
AcDbLine
 62
7
  6
BYLAYER
 10
17.3019446778
 20
12.9205745593
 11
17.3010834039
 21
12.9223296509
  0
LINE
  5
347
100
AcDbEntity
  8
0
100
AcDbLine
 62
7
  6
BYLAYER
 10
17.6481118831
 20
12.1526506405
 11
17.6439651162
 21
12.1612757004
  0
LWPOLYLINE
  5
348
100
AcDbEntity
  8
0
100
AcDbPolyline
 62
7
  6
BYLAYER
 90
28
 70
0
 10
17.6439644125
 20
12.1612754188
 10
17.6429970001
 20
12.1634207225
 10
17.6413966519
 20
12.1671424371
 10
17.6396614769
 20
12.1714187041
 10
17.6378104133
 20
12.1762591033
 10
17.6358623503
 20
12.1816718716
 10
17.6338360616
 20
12.1876640951
 10
17.6317504243
 20
12.1942410587
 10
17.6296251146
 20
12.201403666
 10
17.6274788516
 20
12.2091539214
 10
17.6253335324
 20
12.2174793168
 10
17.6232096127
 20
12.2263676835
 10
17.6211279491
 20
12.2357995556
 10
17.6191084327
 20
12.2457527996
 10
17.6171699994
 20
12.256202322
 10
17.6153305578
 20
12.2671200774
 10
17.6136070995
 20
12.2784737803
 10
17.6120152156
 20
12.29022929
 10
17.6105694572
 20
12.3023473761
 10
17.6092827913
 20
12.3147866178
 10
17.6081664854
 20
12.3275043457
 10
17.607230212
 20
12.3404553265
 10
17.6064818279
 20
12.3535942336
 10
17.6059275421
 20
12.3668729288
 10
17.6055716398
 20
12.3802470543
 10
17.6054168378
 20
12.3936699242
 10
17.6054641837
 20
12.4070968593
 10
17.6056689652
 20
12.4187266672
  0
LWPOLYLINE
  5
349
100
AcDbEntity
  8
0
100
AcDbPolyline
 62
7
  6
BYLAYER
 90
13
 70
0
 10
17.6985443421
 20
13.0377204376
 10
17.6859037355
 20
13.04543533
 10
17.6715825222
 20
13.053319188
 10
17.6569535423
 20
13.0604875737
 10
17.6420718735
 20
13.0669117777
 10
17.6269950099
 20
13.0725698708
 10
17.611753286
 20
13.0774553278
 10
17.5963837615
 20
13.0815640751
 10
17.5809364726
 20
13.0848946193
 10
17.5654568356
 20
13.087450547
 10
17.5500024863
 20
13.0892375227
 10
17.5346378356
 20
13.0902664562
 10
17.5209784722
 20
13.0905589248
  0
LINE
  5
34A
100
AcDbEntity
  8
0
100
AcDbLine
 62
7
  6
BYLAYER
 10
17.7023301454
 20
13.0398050861
 11
17.8138135973
 21
12.9704239271
  0
LINE
  5
34B
100
AcDbEntity
  8
03___PRT_ALL_CURVES
100
AcDbLine
 62
7
  6
BYLAYER
 10
17.0656821271
 20
13.5082971283
 11
17.0658589417
 21
13.5079484556
  0
LINE
  5
34C
100
AcDbEntity
  8
02___PRT_ALL_AXES
100
AcDbLine
 62
7
  6
BYLAYER
 10
17.4088131206
 20
12.960745874
 11
17.4030983646
 21
12.9723913224
  0
LINE
  5
34D
100
AcDbEntity
  8
0
100
AcDbLine
 62
7
  6
BYLAYER
 10
17.0164193502
 20
11.8975538895
 11
17.159675271
 21
11.9753587289
  0
LINE
  5
34E
100
AcDbEntity
  8
02___PRT_ALL_AXES
100
AcDbLine
 62
7
  6
BYLAYER
 10
17.3847992324
 20
13.1852317334
 11
17.4443772529
 21
13.0812659549
  0
LINE
  5
34F
100
AcDbEntity
  8
0
100
AcDbLine
 62
7
  6
BYLAYER
 10
17.7959612826
 20
12.0587555926
 11
17.8137951526
 21
12.0698544108
  0
LINE
  5
350
100
AcDbEntity
  8
0
100
AcDbLine
 62
7
  6
BYLAYER
 10
18.0009895417
 20
13.2001255195
 11
17.9909360513
 21
13.2217503035
  0
LINE
  5
351
100
AcDbEntity
  8
0
100
AcDbLine
 62
7
  6
BYLAYER
 10
18.0050761065
 20
13.1905012518
 11
18.0009895417
 21
13.2001255195
  0
LINE
  5
352
100
AcDbEntity
  8
02___PRT_ALL_AXES
100
AcDbLine
 62
7
  6
BYLAYER
 10
17.901244107
 20
13.4386928507
 11
17.9918753023
 21
13.2194784885
  0
LINE
  5
353
100
AcDbEntity
  8
0
100
AcDbLine
 62
7
  6
BYLAYER
 10
17.9466797843
 20
13.9436940437
 11
17.9882764024
 21
13.858929048
  0
ARC
  5
354
100
AcDbEntity
  8
0
100
AcDbCircle
 62
7
  6
BYLAYER
 10
3.7670454545
 20
4.9582981818
 40
0.0454545455
100
AcDbArc
 50
90.0
 51
180.0
  0
ARC
  5
355
100
AcDbEntity
  8
0
100
AcDbCircle
 62
7
  6
BYLAYER
 10
4.9488636364
 20
4.3605709091
 40
0.0227272727
100
AcDbArc
 50
90.0
 51
180.0
  0
ARC
  5
356
100
AcDbEntity
  8
0
100
AcDbCircle
 62
7
  6
BYLAYER
 10
5.1306818182
 20
4.3605709091
 40
0.0227272727
100
AcDbArc
 50
0.0
 51
90.0
  0
ARC
  5
357
100
AcDbEntity
  8
0
100
AcDbCircle
 62
7
  6
BYLAYER
 10
4.9488636364
 20
4.1332981818
 40
0.0227272727
100
AcDbArc
 50
180.0
 51
270.0
  0
ARC
  5
358
100
AcDbEntity
  8
0
100
AcDbCircle
 62
7
  6
BYLAYER
 10
5.1306818182
 20
4.1332981818
 40
0.0227272727
100
AcDbArc
 50
270.0
 51
360.0
  0
ARC
  5
359
100
AcDbEntity
  8
0
100
AcDbCircle
 62
7
  6
BYLAYER
 10
-2.440313177
 20
-2.7167001668
 40
18.1730865989
100
AcDbArc
 50
61.8105032271
 51
62.1855683948
  0
ARC
  5
35A
100
AcDbEntity
  8
0
100
AcDbCircle
 62
7
  6
BYLAYER
 10
3.7670454545
 20
12.0757148182
 40
0.0454545455
100
AcDbArc
 50
180.0
 51
270.0
  0
ARC
  5
35B
100
AcDbEntity
  8
0
100
AcDbCircle
 62
7
  6
BYLAYER
 10
5.1306818182
 20
11.4348057273
 40
0.0227272727
100
AcDbArc
 50
270.0
 51
360.0
  0
ARC
  5
35C
100
AcDbEntity
  8
0
100
AcDbCircle
 62
7
  6
BYLAYER
 10
4.9488636364
 20
11.4348057273
 40
0.0227272727
100
AcDbArc
 50
180.0
 51
270.0
  0
ARC
  5
35D
100
AcDbEntity
  8
0
100
AcDbCircle
 62
7
  6
BYLAYER
 10
3.7670454545
 20
13.4984420909
 40
0.0454545455
100
AcDbArc
 50
90.0
 51
180.0
  0
ARC
  5
35E
100
AcDbEntity
  8
0
100
AcDbCircle
 62
7
  6
BYLAYER
 10
6.6419178584
 20
12.1767407223
 40
0.2603286745
100
AcDbArc
 50
276.4429168993
 51
280.1306483726
  0
ARC
  5
35F
100
AcDbEntity
  8
0
100
AcDbCircle
 62
7
  6
BYLAYER
 10
6.642088013
 20
12.1759597533
 40
0.2595431205
100
AcDbArc
 50
263.2242266472
 51
269.9906049614
  0
ARC
  5
360
100
AcDbEntity
  8
0
100
AcDbCircle
 62
7
  6
BYLAYER
 10
6.6420045915
 20
12.1759257459
 40
0.2595091127
100
AcDbArc
 50
270.0090219512
 51
276.4440795096
  0
CIRCLE
  5
361
100
AcDbEntity
  8
02___PRT_ALL_AXES
100
AcDbCircle
 62
7
  6
BYLAYER
 10
6.4767957906
 20
13.1381304746
 40
0.04
  0
CIRCLE
  5
362
100
AcDbEntity
  8
02___PRT_ALL_AXES
100
AcDbCircle
 62
7
  6
BYLAYER
 10
6.2430974746
 20
13.3718287906
 40
0.04
  0
CIRCLE
  5
363
100
AcDbEntity
  8
02___PRT_ALL_AXES
100
AcDbCircle
 62
7
  6
BYLAYER
 10
6.2430974746
 20
13.7023281185
 40
0.04
  0
CIRCLE
  5
364
100
AcDbEntity
  8
02___PRT_ALL_AXES
100
AcDbCircle
 62
7
  6
BYLAYER
 10
6.4767957906
 20
13.9360264345
 40
0.04
  0
ARC
  5
365
100
AcDbEntity
  8
0
100
AcDbCircle
 62
7
  6
BYLAYER
 10
6.6420454545
 20
12.7870784545
 40
0.0568181818
100
AcDbArc
 50
314.876583333
 51
225.123416667
  0
CIRCLE
  5
366
100
AcDbEntity
  8
02___PRT_ALL_AXES
100
AcDbCircle
 62
7
  6
BYLAYER
 10
6.8072951185
 20
13.1381304746
 40
0.04
  0
CIRCLE
  5
367
100
AcDbEntity
  8
02___PRT_ALL_AXES
100
AcDbCircle
 62
7
  6
BYLAYER
 10
7.0284090909
 20
12.7870784545
 40
0.0223454545
  0
CIRCLE
  5
368
100
AcDbEntity
  8
0
100
AcDbCircle
 62
7
  6
BYLAYER
 10
6.6420454545
 20
12.7870784545
 40
0.0223454545
  0
CIRCLE
  5
369
100
AcDbEntity
  8
02___PRT_ALL_AXES
100
AcDbCircle
 62
7
  6
BYLAYER
 10
7.0284090909
 20
12.7870784545
 40
0.0212417804
  0
CIRCLE
  5
36A
100
AcDbEntity
  8
0
100
AcDbCircle
 62
7
  6
BYLAYER
 10
6.6420454545
 20
12.7870784545
 40
0.0212417804
  0
CIRCLE
  5
36B
100
AcDbEntity
  8
0
100
AcDbCircle
 62
7
  6
BYLAYER
 10
6.6420454545
 20
13.5370784545
 40
0.5509090909
  0
CIRCLE
  5
36C
100
AcDbEntity
  8
03___PRT_ALL_CURVES
100
AcDbCircle
 62
7
  6
BYLAYER
 10
6.6420454545
 20
13.5370784545
 40
0.4318181818
  0
CIRCLE
  5
36D
100
AcDbEntity
  8
0
100
AcDbCircle
 62
7
  6
BYLAYER
 10
6.6420454545
 20
13.5370784545
 40
0.2727272727
  0
CIRCLE
  5
36E
100
AcDbEntity
  8
0
100
AcDbCircle
 62
7
  6
BYLAYER
 10
6.6420454545
 20
13.5370784545
 40
0.2303030303
  0
CIRCLE
  5
36F
100
AcDbEntity
  8
02___PRT_ALL_AXES
100
AcDbCircle
 62
7
  6
BYLAYER
 10
7.0409934345
 20
13.3718287906
 40
0.04
  0
CIRCLE
  5
370
100
AcDbEntity
  8
02___PRT_ALL_AXES
100
AcDbCircle
 62
7
  6
BYLAYER
 10
6.8072951185
 20
13.9360264345
 40
0.04
  0
CIRCLE
  5
371
100
AcDbEntity
  8
02___PRT_ALL_AXES
100
AcDbCircle
 62
7
  6
BYLAYER
 10
7.0409934345
 20
13.7023281185
 40
0.04
  0
CIRCLE
  5
372
100
AcDbEntity
  8
02___PRT_ALL_AXES
100
AcDbCircle
 62
7
  6
BYLAYER
 10
16.0436097951
 20
4.0440728032
 40
0.04
  0
ARC
  5
373
100
AcDbEntity
  8
0
100
AcDbCircle
 62
7
  6
BYLAYER
 10
15.1847727273
 20
4.1348241818
 40
0.0227272727
100
AcDbArc
 50
180.0
 51
270.0
  0
CIRCLE
  5
374
100
AcDbEntity
  8
02___PRT_ALL_AXES
100
AcDbCircle
 62
7
  6
BYLAYER
 10
16.0436097951
 20
4.4528482877
 40
0.04
  0
ARC
  5
375
100
AcDbEntity
  8
0
100
AcDbCircle
 62
7
  6
BYLAYER
 10
15.1847727273
 20
4.3620969091
 40
0.0227272727
100
AcDbArc
 50
90.0
 51
180.0
  0
ARC
  5
376
100
AcDbEntity
  8
0
100
AcDbCircle
 62
7
  6
BYLAYER
 10
16.6130781818
 20
4.248460604
 40
0.9466945455
100
AcDbArc
 50
180.0000035429
 51
359.9999964571
  0
ARC
  5
377
100
AcDbEntity
  8
03___PRT_ALL_CURVES
100
AcDbCircle
 62
7
  6
BYLAYER
 10
16.6130781818
 20
4.2484605455
 40
0.9466945455
100
AcDbArc
 50
180.0
 51
360.0
  0
ARC
  5
378
100
AcDbEntity
  8
0
100
AcDbCircle
 62
7
  6
BYLAYER
 10
16.5370454545
 20
4.2484605455
 40
0.8181818182
100
AcDbArc
 50
56.8751444169
 51
137.9389234493
  0
ARC
  5
379
100
AcDbEntity
  8
0
100
AcDbCircle
 62
7
  6
BYLAYER
 10
16.5370454545
 20
4.2484605455
 40
0.7568181818
100
AcDbArc
 50
53.4651406481
 51
114.8847312916
  0
ARC
  5
37A
100
AcDbEntity
  8
0
100
AcDbCircle
 62
7
  6
BYLAYER
 10
16.5370454545
 20
4.2484605455
 40
0.7159090909
100
AcDbArc
 50
50.760340783
 51
101.2487246471
  0
ARC
  5
37B
100
AcDbEntity
  8
0
100
AcDbCircle
 62
7
  6
BYLAYER
 10
16.3686817033
 20
4.2484604174
 40
0.702298067
100
AcDbArc
 50
80.5889799245
 51
179.9999895533
  0
ARC
  5
37C
100
AcDbEntity
  8
03___PRT_ALL_CURVES
100
AcDbCircle
 62
7
  6
BYLAYER
 10
16.3686815947
 20
4.2484605455
 40
0.7022979584
100
AcDbArc
 50
80.5889658654
 51
180.0
  0
CIRCLE
  5
37D
100
AcDbEntity
  8
0
100
AcDbCircle
 62
7
  6
BYLAYER
 10
16.5370454545
 20
4.2484605455
 40
0.6704545455
  0
ARC
  5
37E
100
AcDbEntity
  8
03___PRT_ALL_CURVES
100
AcDbCircle
 62
7
  6
BYLAYER
 10
16.5370454545
 20
4.2484605455
 40
0.5340909091
100
AcDbArc
 50
198.2094536332
 51
206.7899926435
  0
ARC
  5
37F
100
AcDbEntity
  8
03___PRT_ALL_CURVES
100
AcDbCircle
 62
7
  6
BYLAYER
 10
16.5370454545
 20
4.2484605455
 40
0.5340909091
100
AcDbArc
 50
243.209587821
 51
251.7898284375
  0
ARC
  5
380
100
AcDbEntity
  8
03___PRT_ALL_CURVES
100
AcDbCircle
 62
7
  6
BYLAYER
 10
16.5370454545
 20
4.2484605455
 40
0.5340909091
100
AcDbArc
 50
288.2099903948
 51
296.7899604555
  0
ARC
  5
381
100
AcDbEntity
  8
03___PRT_ALL_CURVES
100
AcDbCircle
 62
7
  6
BYLAYER
 10
16.5370454545
 20
4.2484605455
 40
0.5340909091
100
AcDbArc
 50
333.209719986
 51
341.790059071
  0
ARC
  5
382
100
AcDbEntity
  8
03___PRT_ALL_CURVES
100
AcDbCircle
 62
7
  6
BYLAYER
 10
16.5370454545
 20
4.2484605455
 40
0.5340909091
100
AcDbArc
 50
18.2094536332
 51
26.7899926435
  0
ARC
  5
383
100
AcDbEntity
  8
03___PRT_ALL_CURVES
100
AcDbCircle
 62
7
  6
BYLAYER
 10
16.5370454545
 20
4.2484605455
 40
0.5340909091
100
AcDbArc
 50
63.209587821
 51
71.7898284375
  0
ARC
  5
384
100
AcDbEntity
  8
03___PRT_ALL_CURVES
100
AcDbCircle
 62
7
  6
BYLAYER
 10
16.5370454545
 20
4.2484605455
 40
0.5340909091
100
AcDbArc
 50
108.2099903948
 51
116.7899604555
  0
ARC
  5
385
100
AcDbEntity
  8
03___PRT_ALL_CURVES
100
AcDbCircle
 62
7
  6
BYLAYER
 10
16.5370454545
 20
4.2484605455
 40
0.5340909091
100
AcDbArc
 50
153.209719986
 51
161.790059071
  0
ARC
  5
386
100
AcDbEntity
  8
0
100
AcDbCircle
 62
7
  6
BYLAYER
 10
16.5622653639
 20
4.255221662
 40
0.494944995
100
AcDbArc
 50
287.8798040196
 51
291.5507980362
  0
ARC
  5
387
100
AcDbEntity
  8
0
100
AcDbCircle
 62
7
  6
BYLAYER
 10
16.5748219831
 20
4.2422151367
 40
0.4763928567
100
AcDbArc
 50
332.4582198344
 51
340.5380241147
  0
CIRCLE
  5
388
100
AcDbEntity
  8
0
100
AcDbCircle
 62
7
  6
BYLAYER
 10
16.5370454545
 20
4.2484605455
 40
0.2831818182
  0
CIRCLE
  5
389
100
AcDbEntity
  8
02___PRT_ALL_AXES
100
AcDbCircle
 62
7
  6
BYLAYER
 10
16.3326577123
 20
3.755024886
 40
0.04
  0
CIRCLE
  5
38A
100
AcDbEntity
  8
02___PRT_ALL_AXES
100
AcDbCircle
 62
7
  6
BYLAYER
 10
16.7414331968
 20
3.755024886
 40
0.04
  0
CIRCLE
  5
38B
100
AcDbEntity
  8
02___PRT_ALL_AXES
100
AcDbCircle
 62
7
  6
BYLAYER
 10
17.030481114
 20
4.0440728032
 40
0.04
  0
CIRCLE
  5
38C
100
AcDbEntity
  8
02___PRT_ALL_AXES
100
AcDbCircle
 62
7
  6
BYLAYER
 10
16.7414331968
 20
4.7418962049
 40
0.04
  0
CIRCLE
  5
38D
100
AcDbEntity
  8
02___PRT_ALL_AXES
100
AcDbCircle
 62
7
  6
BYLAYER
 10
16.3326577123
 20
4.7418962049
 40
0.04
  0
CIRCLE
  5
38E
100
AcDbEntity
  8
02___PRT_ALL_AXES
100
AcDbCircle
 62
7
  6
BYLAYER
 10
17.030481114
 20
4.4528482877
 40
0.04
  0
ARC
  5
38F
100
AcDbEntity
  8
0
100
AcDbCircle
 62
7
  6
BYLAYER
 10
16.5875
 20
4.9357332727
 40
0.0063636364
100
AcDbArc
 50
0.0
 51
90.0
  0
ARC
  5
390
100
AcDbEntity
  8
0
100
AcDbCircle
 62
7
  6
BYLAYER
 10
16.4865909091
 20
4.9357332727
 40
0.0063636364
100
AcDbArc
 50
89.9960740197
 51
118.8691584676
  0
ARC
  5
391
100
AcDbEntity
  8
0
100
AcDbCircle
 62
7
  6
BYLAYER
 10
8.5907700482
 20
33.1235624056
 40
22.7775181122
100
AcDbArc
 50
291.5004226101
 51
292.0606364822
  0
ARC
  5
392
100
AcDbEntity
  8
0
100
AcDbCircle
 62
7
  6
BYLAYER
 10
9.7770951001
 20
30.0817327932
 40
19.1952478357
100
AcDbArc
 50
291.4566575998
 51
292.3724522777
  0
ARC
  5
393
100
AcDbEntity
  8
0
100
AcDbCircle
 62
7
  6
BYLAYER
 10
18.7377161121
 20
12.5201458709
 40
0.9919459922
100
AcDbArc
 50
177.6268540918
 51
182.4426342134
  0
ARC
  5
394
100
AcDbEntity
  8
0
100
AcDbCircle
 62
7
  6
BYLAYER
 10
16.6219925164
 20
12.9891047261
 40
0.4290572826
100
AcDbArc
 50
35.1667595482
 51
35.783944425
  0
ARC
  5
395
100
AcDbEntity
  8
0
100
AcDbCircle
 62
7
  6
BYLAYER
 10
16.8189810173
 20
13.0661035414
 40
0.2264397439
100
AcDbArc
 50
48.654051694
 51
49.3624048462
  0
ARC
  5
396
100
AcDbEntity
  8
0
100
AcDbCircle
 62
7
  6
BYLAYER
 10
16.8191321759
 20
11.974012163
 40
0.2262093521
100
AcDbArc
 50
310.6383395575
 51
311.1950660389
  0
ARC
  5
397
100
AcDbEntity
  8
0
100
AcDbCircle
 62
7
  6
BYLAYER
 10
17.857719802
 20
13.164133441
 40
0.1451232958
100
AcDbArc
 50
10.3857629428
 51
22.4183085718
  0
ARC
  5
398
100
AcDbEntity
  8
0
100
AcDbCircle
 62
7
  6
BYLAYER
 10
17.6068923066
 20
12.9961668933
 40
0.0867052936
100
AcDbArc
 50
78.1888030895
 51
89.9595221836
  0
ARC
  5
399
100
AcDbEntity
  8
0
100
AcDbCircle
 62
7
  6
BYLAYER
 10
17.6069633539
 20
12.9970170556
 40
0.0858551102
100
AcDbArc
 50
90.0065350436
 51
98.3213285061
  0
ARC
  5
39A
100
AcDbEntity
  8
0
100
AcDbCircle
 62
7
  6
BYLAYER
 10
15.9316339027
 20
11.9398136798
 40
0.033276152
100
AcDbArc
 50
55.0393106416
 51
64.0095452187
  0
ARC
  5
39B
100
AcDbEntity
  8
0
100
AcDbCircle
 62
7
  6
BYLAYER
 10
15.6402277245
 20
11.5315120479
 40
0.0227434062
100
AcDbArc
 50
162.8318911286
 51
206.105793011
  0
ARC
  5
39C
100
AcDbEntity
  8
0
100
AcDbCircle
 62
7
  6
BYLAYER
 10
15.8770038271
 20
11.3902360139
 40
0.0227274833
100
AcDbArc
 50
270.0002034837
 51
342.8242883591
  0
ARC
  5
39D
100
AcDbEntity
  8
0
100
AcDbCircle
 62
7
  6
BYLAYER
 10
15.7095380205
 20
11.3902355555
 40
0.0227269407
100
AcDbArc
 50
206.1382496207
 51
269.9910710903
  0
SPLINE
  5
39E
100
AcDbEntity
  8
0
100
AcDbSpline
 62
7
  6
BYLAYER
 70
0
 71
3
 72
11
 73
7
 74
0
 42
0.0000001
 43
0.0000001
 44
0.0000000001
 40
0.0
 40
0.0
 40
0.0
 40
0.0
 40
0.2962739007
 40
0.5621961403
 40
0.7969219247
 40
1.0
 40
1.0
 40
1.0
 40
1.0
 10
6.3857306563
 20
4.6739938019
 30
0.0
 10
6.3858704865
 20
4.6808722894
 30
0.0
 10
6.3862797702
 20
4.6939225404
 30
0.0
 10
6.3874223992
 20
4.7123968936
 30
0.0
 10
6.3890904196
 20
4.7286579112
 30
0.0
 10
6.3906799429
 20
4.7387085143
 30
0.0
 10
6.3916090493
 20
4.7433318483
 30
0.0
  0
SPLINE
  5
39F
100
AcDbEntity
  8
0
100
AcDbSpline
 62
7
  6
BYLAYER
 70
0
 71
3
 72
29
 73
25
 74
0
 42
0.0000001
 43
0.0000001
 44
0.0000000001
 40
0.0
 40
0.0
 40
0.0
 40
0.0
 40
0.0003037497
 40
0.0012150161
 40
0.0027338026
 40
0.0048594803
 40
0.0075898825
 40
0.0109226141
 40
0.0193854916
 40
0.0302279372
 40
0.04341897
 40
0.0589212565
 40
0.0766961119
 40
0.0966948718
 40
0.1188644863
 40
0.1694887695
 40
0.22805948
 40
0.2940027458
 40
0.3666857968
 40
0.4454189914
 40
0.5294589101
 40
0.6180143937
 40
0.8052571438
 40
1.0
 40
1.0
 40
1.0
 40
1.0
 10
6.3385101397
 20
4.9401164199
 30
0.0
 10
6.3385068909
 20
4.9401116537
 30
0.0
 10
6.3385200309
 20
4.9401600084
 30
0.0
 10
6.3385177897
 20
4.9401867568
 30
0.0
 10
6.3385354271
 20
4.9402864591
 30
0.0
 10
6.3385500645
 20
4.9404001
 30
0.0
 10
6.3385728137
 20
4.9405564672
 30
0.0
 10
6.3386109022
 20
4.9408284633
 30
0.0
 10
6.3386707398
 20
4.9412549548
 30
0.0
 10
6.3387551299
 20
4.9418659095
 30
0.0
 10
6.3388563792
 20
4.9426099447
 30
0.0
 10
6.3389729854
 20
4.9434845797
 30
0.0
 10
6.3391037681
 20
4.9444877967
 30
0.0
 10
6.3392470361
 20
4.9456170437
 30
0.0
 10
6.3394620806
 20
4.9473659776
 30
0.0
 10
6.3397502189
 20
4.9498438852
 30
0.0
 10
6.3401012625
 20
4.9531511841
 30
0.0
 10
6.3404537913
 20
4.9568793481
 30
0.0
 10
6.3407894775
 20
4.960993382
 30
0.0
 10
6.3410900004
 20
4.9654546605
 30
0.0
 10
6.3413379083
 20
4.970221067
 30
0.0
 10
6.3415816044
 20
4.977050189
 30
0.0
 10
6.3416665286
 20
4.9859871397
 30
0.0
 10
6.3414721502
 20
4.993240225
 30
0.0
 10
6.3413050535
 20
4.9969345455
 30
0.0
  0
LINE
  5
3A0
100
AcDbEntity
  8
0
100
AcDbLine
 62
7
  6
BYLAYER
 10
7.1256818182
 20
4.6196266285
 11
7.0056818182
 21
4.6302432306
  0
LINE
  5
3A1
100
AcDbEntity
  8
0
100
AcDbLine
 62
7
  6
BYLAYER
 10
6.9695676548
 20
4.6505709091
 11
7.0056818182
 21
4.6302432306
  0
LINE
  5
3A2
100
AcDbEntity
  8
0
100
AcDbLine
 62
7
  6
BYLAYER
 10
6.3413050535
 20
4.9969345455
 11
6.3382216828
 21
5.0651163636
  0
SPLINE
  5
3A3
100
AcDbEntity
  8
0
100
AcDbSpline
 62
7
  6
BYLAYER
 70
0
 71
3
 72
9
 73
5
 74
0
 42
0.0000001
 43
0.0000001
 44
0.0000000001
 40
0.0
 40
0.0
 40
0.0
 40
0.0
 40
0.5000007385
 40
1.0
 40
1.0
 40
1.0
 40
1.0
 10
6.0394204557
 20
12.2174257668
 30
0.0
 10
6.0847567372
 20
12.2413528053
 30
0.0
 10
6.1752580608
 20
12.2895318243
 30
0.0
 10
6.2652476897
 20
12.338665815
 30
0.0
 10
6.3100340989
 20
12.3636066172
 30
0.0
  0
SPLINE
  5
3A4
100
AcDbEntity
  8
0
100
AcDbSpline
 62
7
  6
BYLAYER
 70
0
 71
3
 72
11
 73
7
 74
0
 42
0.0000001
 43
0.0000001
 44
0.0000000001
 40
0.0
 40
0.0
 40
0.0
 40
0.0
 40
0.2500090104
 40
0.5000000033
 40
0.7499909943
 40
1.0
 40
1.0
 40
1.0
 40
1.0
 10
6.9695676548
 20
12.8438966364
 30
0.0
 10
6.9718888132
 20
12.8346199176
 30
0.0
 10
6.9754814507
 20
12.815781801
 30
0.0
 10
6.9773254265
 20
12.7870784542
 30
0.0
 10
6.9754814506
 20
12.7583751076
 30
0.0
 10
6.9718888132
 20
12.7395369913
 30
0.0
 10
6.9695676548
 20
12.7302602727
 30
0.0
  0
SPLINE
  5
3A5
100
AcDbEntity
  8
0
100
AcDbSpline
 62
7
  6
BYLAYER
 70
0
 71
3
 72
11
 73
7
 74
0
 42
0.0000001
 43
0.0000001
 44
0.0000000001
 40
0.0
 40
0.0
 40
0.0
 40
0.0
 40
0.2567254871
 40
0.5108016579
 40
0.7594152023
 40
1.0
 40
1.0
 40
1.0
 40
1.0
 10
6.4121085087
 20
12.7870784545
 30
0.0
 10
6.4151309118
 20
12.8069707053
 30
0.0
 10
6.4216580871
 20
12.8464740541
 30
0.0
 10
6.4329667835
 20
12.9049161387
 30
0.0
 10
6.4457400575
 20
12.9617609762
 30
0.0
 10
6.455415029
 20
12.9988713175
 30
0.0
 10
6.4605404364
 20
13.0170168879
 30
0.0
  0
SPLINE
  5
3A6
100
AcDbEntity
  8
0
100
AcDbSpline
 62
7
  6
BYLAYER
 70
0
 71
3
 72
9
 73
5
 74
0
 42
0.0000001
 43
0.0000001
 44
0.0000000001
 40
0.0
 40
0.0
 40
0.0
 40
0.0
 40
0.5104519121
 40
1.0
 40
1.0
 40
1.0
 40
1.0
 10
6.4870366674
 20
13.0995342531
 30
0.0
 10
6.4907615823
 20
13.1096941688
 30
0.0
 10
6.4984099616
 20
13.1294716766
 30
0.0
 10
6.5069013775
 20
13.1489064232
 30
0.0
 10
6.5113106234
 20
13.1583012641
 30
0.0
  0
SPLINE
  5
3A7
100
AcDbEntity
  8
0
100
AcDbSpline
 62
7
  6
BYLAYER
 70
0
 71
3
 72
11
 73
7
 74
0
 42
0.0000001
 43
0.0000001
 44
0.0000000001
 40
0.0
 40
0.0
 40
0.0
 40
0.0
 40
0.2249096887
 40
0.471064899
 40
0.7317646167
 40
1.0
 40
1.0
 40
1.0
 40
1.0
 10
6.3855642902
 20
12.4614140296
 30
0.0
 10
6.3857362865
 20
12.4859285678
 30
0.0
 10
6.3870700958
 20
12.5372702584
 30
0.0
 10
6.3919761732
 20
12.6168976598
 30
0.0
 10
6.4001288608
 20
12.701004796
 30
0.0
 10
6.4077165847
 20
12.758172563
 30
0.0
 10
6.4121085087
 20
12.7870784545
 30
0.0
  0
SPLINE
  5
3A8
100
AcDbEntity
  8
0
100
AcDbSpline
 62
7
  6
BYLAYER
 70
0
 71
3
 72
13
 73
9
 74
0
 42
0.0000001
 43
0.0000001
 44
0.0000000001
 40
0.0
 40
0.0
 40
0.0
 40
0.0
 40
0.2540493772
 40
0.5095866053
 40
0.6358480571
 40
0.760087578
 40
0.8816500345
 40
1.0
 40
1.0
 40
1.0
 40
1.0
 10
6.8968285586
 20
12.6999005533
 30
0.0
 10
6.8966143557
 20
12.7282233484
 30
0.0
 10
6.8948986604
 20
12.7850329873
 30
0.0
 10
6.8894384128
 20
12.8557422
 30
0.0
 10
6.8829530204
 20
12.9117913318
 30
0.0
 10
6.8770698496
 20
12.95285868
 30
0.0
 10
6.8701229753
 20
12.9928648726
 30
0.0
 10
6.8646710635
 20
13.0190578105
 30
0.0
 10
6.8617336538
 20
13.0319213613
 30
0.0
  0
SPLINE
  5
3A9
100
AcDbEntity
  8
0
100
AcDbSpline
 62
7
  6
BYLAYER
 70
0
 71
3
 72
10
 73
6
 74
0
 42
0.0000001
 43
0.0000001
 44
0.0000000001
 40
0.0
 40
0.0
 40
0.0
 40
0.0
 40
0.5029888064
 40
0.7513288183
 40
1.0
 40
1.0
 40
1.0
 40
1.0
 10
6.8388165825
 20
13.11355292
 30
0.0
 10
6.8349597442
 20
13.1247028574
 30
0.0
 10
6.8286961624
 20
13.1411983447
 30
0.0
 10
6.8189741836
 20
13.1625519651
 30
0.0
 10
6.8135846865
 20
13.1728992163
 30
0.0
 10
6.8107161334
 20
13.1779779534
 30
0.0
  0
SPLINE
  5
3AA
100
AcDbEntity
  8
0
100
AcDbSpline
 62
7
  6
BYLAYER
 70
0
 71
3
 72
13
 73
9
 74
0
 42
0.0000001
 43
0.0000001
 44
0.0000000001
 40
0.0
 40
0.0
 40
0.0
 40
0.0
 40
0.1264626838
 40
0.2528205893
 40
0.3789205916
 40
0.5046070092
 40
0.7537655837
 40
1.0
 40
1.0
 40
1.0
 40
1.0
 10
6.6420454199
 20
12.7335514751
 30
0.0
 10
6.6438709884
 20
12.7335514741
 30
0.0
 10
6.647521368
 20
12.7336364168
 30
0.0
 10
6.6529780165
 20
12.734061207
 30
0.0
 10
6.6583828928
 20
12.73486989
 30
0.0
 10
6.6654219534
 20
12.7365616205
 30
0.0
 10
6.6737905211
 20
12.7399838639
 30
0.0
 10
6.6796165717
 20
12.7443075326
 30
0.0
 10
6.6821354206
 20
12.7468155633
 30
0.0
  0
SPLINE
  5
3AB
100
AcDbEntity
  8
0
100
AcDbSpline
 62
7
  6
BYLAYER
 70
0
 71
3
 72
13
 73
9
 74
0
 42
0.0000001
 43
0.0000001
 44
0.0000000001
 40
0.0
 40
0.0
 40
0.0
 40
0.0
 40
0.246222048
 40
0.4953643188
 40
0.621047464
 40
0.7471437341
 40
0.8735217008
 40
1.0
 40
1.0
 40
1.0
 40
1.0
 10
6.6019554892
 20
12.7468155626
 30
0.0
 10
6.6044742099
 20
12.7443076597
 30
0.0
 10
6.610299882
 20
12.7399841365
 30
0.0
 10
6.6186679662
 20
12.7365622235
 30
0.0
 10
6.6257065265
 20
12.7348696036
 30
0.0
 10
6.6311117747
 20
12.7340624363
 30
0.0
 10
6.6365686642
 20
12.7336348923
 30
0.0
 10
6.6402196272
 20
12.7335514749
 30
0.0
 10
6.6420454199
 20
12.733551474
 30
0.0
  0
SPLINE
  5
3AC
100
AcDbEntity
  8
0
100
AcDbSpline
 62
7
  6
BYLAYER
 70
0
 71
3
 72
14
 73
10
 74
0
 42
0.0000001
 43
0.0000001
 44
0.0000000001
 40
0.0
 40
0.0
 40
0.0
 40
0.0
 40
0.0327220525
 40
0.0593812331
 40
0.0939495688
 40
0.1867216584
 40
0.3092219536
 40
0.6261940782
 40
1.0
 40
1.0
 40
1.0
 40
1.0
 10
4.9261363636
 20
11.9768264786
 30
0.0
 10
4.9261363636
 20
11.9770816725
 30
0.0
 10
4.926529988
 20
11.9774705828
 30
0.0
 10
4.9271510573
 20
11.9778109041
 30
0.0
 10
4.9282746208
 20
11.9782726733
 30
0.0
 10
4.930155314
 20
11.9787732427
 30
0.0
 10
4.9342406609
 20
11.9795389584
 30
0.0
 10
4.9405600388
 20
11.9801660821
 30
0.0
 10
4.9459483857
 20
11.9803403023
 30
0.0
 10
4.9488636364
 20
11.9803403023
 30
0.0
  0
SPLINE
  5
3AD
100
AcDbEntity
  8
0
100
AcDbSpline
 62
7
  6
BYLAYER
 70
0
 71
3
 72
14
 73
10
 74
0
 42
0.0000001
 43
0.0000001
 44
0.0000000001
 40
0.0
 40
0.0
 40
0.0
 40
0.0
 40
0.3738059218
 40
0.6907780464
 40
0.8132783416
 40
0.9060504312
 40
0.9406187669
 40
0.9672779475
 40
1.0
 40
1.0
 40
1.0
 40
1.0
 10
5.1306818182
 20
11.9803403023
 30
0.0
 10
5.1335970689
 20
11.9803403023
 30
0.0
 10
5.1389854158
 20
11.9801660821
 30
0.0
 10
5.1453047936
 20
11.9795389584
 30
0.0
 10
5.1493901405
 20
11.9787732427
 30
0.0
 10
5.1512708338
 20
11.9782726733
 30
0.0
 10
5.1523943972
 20
11.9778109041
 30
0.0
 10
5.1530154665
 20
11.9774705828
 30
0.0
 10
5.1534090909
 20
11.9770816725
 30
0.0
 10
5.1534090909
 20
11.9768264786
 30
0.0
  0
SPLINE
  5
3AE
100
AcDbEntity
  8
0
100
AcDbSpline
 62
7
  6
BYLAYER
 70
0
 71
3
 72
19
 73
15
 74
0
 42
0.0000001
 43
0.0000001
 44
0.0000000001
 40
0.0
 40
0.0
 40
0.0
 40
0.0
 40
0.0006610592
 40
0.0026763294
 40
0.0060940043
 40
0.0109625092
 40
0.0252614458
 40
0.0461708823
 40
0.0744290848
 40
0.1107402857
 40
0.2098248137
 40
0.3471759307
 40
0.5247233377
 40
1.0
 40
1.0
 40
1.0
 40
1.0
 10
16.4835184751
 20
4.9413060653
 30
0.0
 10
16.4835153437
 20
4.9413065843
 30
0.0
 10
16.4835404744
 20
4.9412942305
 30
0.0
 10
16.483551316
 20
4.9412841248
 30
0.0
 10
16.4836015617
 20
4.9412551567
 30
0.0
 10
16.4836893261
 20
4.9412010856
 30
0.0
 10
16.4838591218
 20
4.94110203
 30
0.0
 10
16.4841225819
 20
4.9409531041
 30
0.0
 10
16.484484826
 20
4.940758253
 30
0.0
 10
16.4851832581
 20
4.940399122
 30
0.0
 10
16.4863650143
 20
4.9398334512
 30
0.0
 10
16.4881819125
 20
4.9390271319
 30
0.0
 10
16.491688003
 20
4.9375764407
 30
0.0
 10
16.4946284829
 20
4.9364865973
 30
0.0
 10
16.4967825633
 20
4.9357332727
 30
0.0
  0
SPLINE
  5
3AF
100
AcDbEntity
  8
0
100
AcDbSpline
 62
7
  6
BYLAYER
 70
0
 71
3
 72
9
 73
5
 74
0
 42
0.0000001
 43
0.0000001
 44
0.0000000001
 40
0.0
 40
0.0
 40
0.0
 40
0.0
 40
0.5259427156
 40
1.0
 40
1.0
 40
1.0
 40
1.0
 10
16.5608388529
 20
4.9184406179
 30
0.0
 10
16.5493975573
 20
4.920584093
 30
0.0
 10
16.5278124558
 20
4.9256142091
 30
0.0
 10
16.5066863123
 20
4.932269702
 30
0.0
 10
16.4967824848
 20
4.9357332727
 30
0.0
  0
SPLINE
  5
3B0
100
AcDbEntity
  8
0
100
AcDbSpline
 62
7
  6
BYLAYER
 70
0
 71
3
 72
9
 73
5
 74
0
 42
0.0000001
 43
0.0000001
 44
0.0000000001
 40
0.0
 40
0.0
 40
0.0
 40
0.0
 40
0.5079734013
 40
1.0
 40
1.0
 40
1.0
 40
1.0
 10
17.0338818366
 20
4.413032759
 30
0.0
 10
17.0315616139
 20
4.426288296
 30
0.0
 10
17.026644186
 20
4.4523223689
 30
0.0
 10
17.0212879162
 20
4.4782671508
 30
0.0
 10
17.0186323975
 20
4.491028393
 30
0.0
  0
SPLINE
  5
3B1
100
AcDbEntity
  8
0
100
AcDbSpline
 62
7
  6
BYLAYER
 70
0
 71
3
 72
22
 73
18
 74
0
 42
0.0000001
 43
0.0000001
 44
0.0000000001
 40
0.0
 40
0.0
 40
0.0
 40
0.0
 40
0.1811248132
 40
0.2649968084
 40
0.344139454
 40
0.4184331276
 40
0.4878400601
 40
0.5524185629
 40
0.6123432808
 40
0.6679336977
 40
0.7196826599
 40
0.7682811392
 40
0.814626856
 40
0.8597979048
 40
0.9049792097
 40
0.9513547572
 40
1.0
 40
1.0
 40
1.0
 40
1.0
 10
16.7710239627
 20
12.9157148883
 30
0.0
 10
16.7778191959
 20
12.937704271
 30
0.0
 10
16.7889859556
 20
12.9695342763
 30
0.0
 10
16.8064762091
 20
13.0096306295
 30
0.0
 10
16.8200158247
 20
13.0365937077
 30
0.0
 10
16.834249868
 20
13.0610953942
 30
0.0
 10
16.8491143058
 20
13.0830220993
 30
0.0
 10
16.864543426
 20
13.1022720751
 30
0.0
 10
16.8804727088
 20
13.1187550279
 30
0.0
 10
16.8968385197
 20
13.1323905326
 30
0.0
 10
16.9135778062
 20
13.143104629
 30
0.0
 10
16.9306236532
 20
13.1508256486
 30
0.0
 10
16.947895675
 20
13.1554844693
 30
0.0
 10
16.9652897916
 20
13.1570268171
 30
0.0
 10
16.9826837055
 20
13.1554308502
 30
0.0
 10
16.9999499384
 20
13.150720533
 30
0.0
 10
17.0109850879
 20
13.1456870477
 30
0.0
 10
17.0164170492
 20
13.1427370596
 30
0.0
  0
SPLINE
  5
3B2
100
AcDbEntity
  8
0
100
AcDbSpline
 62
7
  6
BYLAYER
 70
0
 71
3
 72
31
 73
27
 74
0
 42
0.0000001
 43
0.0000001
 44
0.0000000001
 40
0.0
 40
0.0
 40
0.0
 40
0.0
 40
0.0705479913
 40
0.1462537266
 40
0.2257262439
 40
0.307432356
 40
0.3897606
 40
0.4710781479
 40
0.5497870811
 40
0.6243822864
 40
0.6935144814
 40
0.7256806522
 40
0.7560865513
 40
0.7846454311
 40
0.811300404
 40
0.8360312655
 40
0.8588633721
 40
0.8798792639
 40
0.8897561712
 40
0.8992440101
 40
0.9171764529
 40
0.934026639
 40
0.9502289276
 40
0.9662859889
 40
0.9827171887
 40
1.0
 40
1.0
 40
1.0
 40
1.0
 10
16.7710239627
 20
12.9157148883
 30
0.0
 10
16.7628153918
 20
12.8891519432
 30
0.0
 10
16.7483132882
 20
12.8332902927
 30
0.0
 10
16.7323963064
 20
12.7457025757
 30
0.0
 10
16.7218024647
 20
12.6528867329
 30
0.0
 10
16.7167866898
 20
12.5569966802
 30
0.0
 10
16.7174680837
 20
12.4602512727
 30
0.0
 10
16.7238310176
 20
12.3648953381
 30
0.0
 10
16.7357226257
 20
12.2731345591
 30
0.0
 10
16.7528605545
 20
12.1870943504
 30
0.0
 10
16.7715982535
 20
12.1202603794
 30
0.0
 10
16.7891020727
 20
12.0713774336
 30
0.0
 10
16.802939477
 20
12.0382167909
 30
0.0
 10
16.8177208644
 20
12.0078610812
 30
0.0
 10
16.8333634745
 20
11.9804832684
 30
0.0
 10
16.8497817981
 20
11.9562371406
 30
0.0
 10
16.8668869596
 20
11.9352617042
 30
0.0
 10
16.8819463843
 20
11.9203058386
 30
0.0
 10
16.8942592083
 20
11.9102065663
 30
0.0
 10
16.9062334573
 20
11.9016675167
 30
0.0
 10
16.9215095696
 20
11.8930831996
 30
0.0
 10
16.940532393
 20
11.8862904654
 30
0.0
 10
16.9597771306
 20
11.8832944444
 30
0.0
 10
16.979074117
 20
11.8841520195
 30
0.0
 10
16.998235775
 20
11.8888435098
 30
0.0
 10
17.0104307927
 20
11.8943017992
 30
0.0
 10
17.0164161475
 20
11.8975522343
 30
0.0
  0
SPLINE
  5
3B3
100
AcDbEntity
  8
0
100
AcDbSpline
 62
7
  6
BYLAYER
 70
0
 71
3
 72
9
 73
5
 74
0
 42
0.0000001
 43
0.0000001
 44
0.0000000001
 40
0.0
 40
0.0
 40
0.0
 40
0.0
 40
0.2551619467
 40
1.0
 40
1.0
 40
1.0
 40
1.0
 10
17.0833018945
 20
12.331327678
 30
0.0
 10
17.0841384785
 20
12.326283858
 30
0.0
 10
17.0875686653
 20
12.3065423463
 30
0.0
 10
17.091610407
 20
12.2869056357
 30
0.0
 10
17.0950036404
 20
12.2723720354
 30
0.0
  0
SPLINE
  5
3B4
100
AcDbEntity
  8
0
100
AcDbSpline
 62
7
  6
BYLAYER
 70
0
 71
3
 72
15
 73
11
 74
0
 42
0.0000001
 43
0.0000001
 44
0.0000000001
 40
0.0
 40
0.0
 40
0.0
 40
0.0
 40
0.1581971454
 40
0.3082103992
 40
0.4490967165
 40
0.5801213335
 40
0.7007572916
 40
0.8107693359
 40
0.9103057289
 40
1.0
 40
1.0
 40
1.0
 40
1.0
 10
16.7986647622
 20
12.2168202842
 30
0.0
 10
16.8023524732
 20
12.2001432517
 30
0.0
 10
16.8102827917
 20
12.1678097456
 30
0.0
 10
16.8242508131
 20
12.1213540536
 30
0.0
 10
16.8398772349
 20
12.0785339229
 30
0.0
 10
16.8570192564
 20
12.0397345285
 30
0.0
 10
16.8755260561
 20
12.0052995318
 30
0.0
 10
16.8952437532
 20
11.9755256619
 30
0.0
 10
16.916008038
 20
11.9506787755
 30
0.0
 10
16.9311993755
 20
11.9368735073
 30
0.0
 10
16.9389146931
 20
11.9310209738
 30
0.0
  0
SPLINE
  5
3B5
100
AcDbEntity
  8
0
100
AcDbSpline
 62
7
  6
BYLAYER
 70
0
 71
3
 72
25
 73
21
 74
0
 42
0.0000001
 43
0.0000001
 44
0.0000000001
 40
0.0
 40
0.0
 40
0.0
 40
0.0
 40
0.1324358839
 40
0.201107473
 40
0.2706286983
 40
0.3403996066
 40
0.4098084894
 40
0.4782607669
 40
0.5452083382
 40
0.6101794625
 40
0.6728098088
 40
0.732874146
 40
0.790317267
 40
0.8452810535
 40
0.8719590573
 40
0.8981682725
 40
0.9239853216
 40
0.9494977037
 40
0.9748017424
 40
1.0
 40
1.0
 40
1.0
 40
1.0
 10
17.5854677933
 20
14.1325369761
 30
0.0
 10
17.5382724922
 20
14.1325369761
 30
0.0
 10
17.4663694661
 20
14.1240517186
 30
0.0
 10
17.3733005195
 20
14.0984354653
 30
0.0
 10
17.3040152009
 20
14.0717544957
 30
0.0
 10
17.2374433396
 20
14.03834003
 30
0.0
 10
17.1747641185
 20
13.9987916269
 30
0.0
 10
17.11711834
 20
13.953823272
 30
0.0
 10
17.0655479605
 20
13.9042429232
 30
0.0
 10
17.020989413
 20
13.8509374834
 30
0.0
 10
16.9842554772
 20
13.7948577788
 30
0.0
 10
16.9560258116
 20
13.7369952056
 30
0.0
 10
16.9368398404
 20
13.6783882914
 30
0.0
 10
16.9286369504
 20
13.6292759915
 30
0.0
 10
16.9270573922
 20
13.5908350093
 30
0.0
 10
16.9282977534
 20
13.5627787806
 30
0.0
 10
16.9319498732
 20
13.535352469
 30
0.0
 10
16.9379984146
 20
13.5086815445
 30
0.0
 10
16.9464153939
 20
13.4828943257
 30
0.0
 10
16.9535882287
 20
13.4663541864
 30
0.0
 10
16.9575443378
 20
13.4582928669
 30
0.0
  0
SPLINE
  5
3B6
100
AcDbEntity
  8
0
100
AcDbSpline
 62
7
  6
BYLAYER
 70
0
 71
3
 72
19
 73
15
 74
0
 42
0.0000001
 43
0.0000001
 44
0.0000000001
 40
0.0
 40
0.0
 40
0.0
 40
0.0
 40
0.141333172
 40
0.2776060354
 40
0.3438002136
 40
0.4086758455
 40
0.4722549558
 40
0.5345801986
 40
0.6556690064
 40
0.7727914682
 40
0.8302457751
 40
0.8871457123
 40
0.9436683701
 40
1.0
 40
1.0
 40
1.0
 40
1.0
 10
17.5854677933
 20
14.1325369761
 30
0.0
 10
17.6056987778
 20
14.1325369761
 30
0.0
 10
17.6454704857
 20
14.1305176646
 30
0.0
 10
17.6941586196
 20
14.1225932928
 30
0.0
 10
17.7312411142
 20
14.1130542653
 30
0.0
 10
17.7577594914
 20
14.1044423966
 30
0.0
 10
17.783151871
 20
14.0943351074
 30
0.0
 10
17.8150646481
 20
14.0790662214
 30
0.0
 10
17.8518646032
 20
14.0564791021
 30
0.0
 10
17.8843252403
 20
14.0290317652
 30
0.0
 10
17.9068789447
 20
14.0047149807
 30
0.0
 10
17.9220080085
 20
13.9854580408
 30
0.0
 10
17.9353923487
 20
13.9651450114
 30
0.0
 10
17.943125707
 20
13.9509360735
 30
0.0
 10
17.9466781726
 20
13.9436972538
 30
0.0
  0
SPLINE
  5
3B7
100
AcDbEntity
  8
02___PRT_ALL_AXES
100
AcDbSpline
 62
7
  6
BYLAYER
 70
0
 71
3
 72
17
 73
13
 74
0
 42
0.0000001
 43
0.0000001
 44
0.0000000001
 40
0.0
 40
0.0
 40
0.0
 40
0.0
 40
0.1325925142
 40
0.2707735877
 40
0.4099481224
 40
0.5453247206
 40
0.672858506
 40
0.79022537
 40
0.8452543801
 40
0.89815623
 40
0.9494936863
 40
1.0
 40
1.0
 40
1.0
 40
1.0
 10
17.7698826466
 20
13.5402174754
 30
0.0
 10
17.7733093034
 20
13.5402174754
 30
0.0
 10
17.78032329
 20
13.5410450159
 30
0.0
 10
17.7904390599
 20
13.5444012658
 30
0.0
 10
17.799791354
 20
13.5496697733
 30
0.0
 10
17.8077260315
 20
13.5564924615
 30
0.0
 10
17.8136914388
 20
13.5644058786
 30
0.0
 10
17.8167216803
 20
13.5716601328
 30
0.0
 10
17.8176851706
 20
13.577424962
 30
0.0
 10
17.8176902872
 20
13.5815616406
 30
0.0
 10
17.81698799
 20
13.5855199519
 30
0.0
 10
17.8160502024
 20
13.5879987935
 30
0.0
 10
17.8154753308
 20
13.5891706418
 30
0.0
  0
SPLINE
  5
3B8
100
AcDbEntity
  8
02___PRT_ALL_AXES
100
AcDbSpline
 62
7
  6
BYLAYER
 70
0
 71
3
 72
21
 73
17
 74
0
 42
0.0000001
 43
0.0000001
 44
0.0000000001
 40
0.0
 40
0.0
 40
0.0
 40
0.0
 40
0.0533394179
 40
0.1094591246
 40
0.1690662237
 40
0.2323153903
 40
0.3677248548
 40
0.4386062676
 40
0.5100561976
 40
0.5809159487
 40
0.6500790287
 40
0.7793548491
 40
0.8388927127
 40
0.8949536638
 40
0.948249955
 40
1.0
 40
1.0
 40
1.0
 40
1.0
 10
17.4748461957
 20
13.3663325414
 30
0.0
 10
17.4760479324
 20
13.3649461495
 30
0.0
 10
17.4788859552
 20
13.3624069214
 30
0.0
 10
17.484025507
 20
13.3595963485
 30
0.0
 10
17.4899483065
 20
13.3577795503
 30
0.0
 10
17.4988061932
 20
13.3567262121
 30
0.0
 10
17.5081670665
 20
13.3578953672
 30
0.0
 10
17.5172371628
 20
13.3609492234
 30
0.0
 10
17.5238375038
 20
13.364197413
 30
0.0
 10
17.5299005401
 20
13.3682606841
 30
0.0
 10
17.5368315714
 20
13.3744295234
 30
0.0
 10
17.5421770617
 20
13.3817455981
 30
0.0
 10
17.5451388057
 20
13.3896798734
 30
0.0
 10
17.546035101
 20
13.3954673691
 30
0.0
 10
17.5456129226
 20
13.4010440579
 30
0.0
 10
17.5444385216
 20
13.4045103881
 30
0.0
 10
17.5436544751
 20
13.4061084815
 30
0.0
  0
SPLINE
  5
3B9
100
AcDbEntity
  8
02___PRT_ALL_AXES
100
AcDbSpline
 62
7
  6
BYLAYER
 70
0
 71
3
 72
11
 73
7
 74
0
 42
0.0000001
 43
0.0000001
 44
0.0000000001
 40
0.0
 40
0.0
 40
0.0
 40
0.0
 40
0.2644202521
 40
0.5170856368
 40
0.7609150129
 40
1.0
 40
1.0
 40
1.0
 40
1.0
 10
17.2401768044
 20
13.3884883722
 30
0.0
 10
17.2406465739
 20
13.3900085465
 30
0.0
 10
17.24133469
 20
13.3930604916
 30
0.0
 10
17.2415418321
 20
13.3976600269
 30
0.0
 10
17.2408880604
 20
13.4020661146
 30
0.0
 10
17.2398780289
 20
13.4048168608
 30
0.0
 10
17.2392444003
 20
13.4061084643
 30
0.0
  0
SPLINE
  5
3BA
100
AcDbEntity
  8
02___PRT_ALL_AXES
100
AcDbSpline
 62
7
  6
BYLAYER
 70
0
 71
3
 72
13
 73
9
 74
0
 42
0.0000001
 43
0.0000001
 44
0.0000000001
 40
0.0
 40
0.0
 40
0.0
 40
0.0
 40
0.2850276125
 40
0.5476028922
 40
0.6688652013
 40
0.7835806064
 40
0.8931954405
 40
1.0
 40
1.0
 40
1.0
 40
1.0
 10
17.0638593231
 20
13.549394721
 30
0.0
 10
17.0675474883
 20
13.5518785755
 30
0.0
 10
17.074086258
 20
13.5575404258
 30
0.0
 10
17.0798879319
 20
13.5664363995
 30
0.0
 10
17.0822986943
 20
13.5738748024
 30
0.0
 10
17.0829379971
 20
13.5792677615
 30
0.0
 10
17.0824213698
 20
13.5844503144
 30
0.0
 10
17.0812983277
 20
13.5876747394
 30
0.0
 10
17.0805644851
 20
13.5891706419
 30
0.0
  0
SPLINE
  5
3BB
100
AcDbEntity
  8
02___PRT_ALL_AXES
100
AcDbSpline
 62
7
  6
BYLAYER
 70
0
 71
3
 72
17
 73
13
 74
0
 42
0.0000001
 43
0.0000001
 44
0.0000000001
 40
0.0
 40
0.0
 40
0.0
 40
0.0
 40
0.1325925142
 40
0.2707735877
 40
0.4099481224
 40
0.5453247206
 40
0.672858506
 40
0.79022537
 40
0.8452543801
 40
0.89815623
 40
0.9494936863
 40
1.0
 40
1.0
 40
1.0
 40
1.0
 10
17.1149745579
 20
13.7991064926
 30
0.0
 10
17.1184012147
 20
13.7991064926
 30
0.0
 10
17.1254152013
 20
13.7999340331
 30
0.0
 10
17.1355309712
 20
13.803290283
 30
0.0
 10
17.1448832653
 20
13.8085587905
 30
0.0
 10
17.1528179427
 20
13.8153814787
 30
0.0
 10
17.1587833501
 20
13.8232948958
 30
0.0
 10
17.1618135916
 20
13.83054915
 30
0.0
 10
17.1627770819
 20
13.8363139792
 30
0.0
 10
17.1627821985
 20
13.8404506578
 30
0.0
 10
17.1620799013
 20
13.8444089691
 30
0.0
 10
17.1611421136
 20
13.8468878107
 30
0.0
 10
17.1605672421
 20
13.848059659
 30
0.0
  0
SPLINE
  5
3BC
100
AcDbEntity
  8
02___PRT_ALL_AXES
100
AcDbSpline
 62
7
  6
BYLAYER
 70
0
 71
3
 72
21
 73
17
 74
0
 42
0.0000001
 43
0.0000001
 44
0.0000000001
 40
0.0
 40
0.0
 40
0.0
 40
0.0
 40
0.0533394179
 40
0.1094591246
 40
0.1690662237
 40
0.2323153903
 40
0.3677248548
 40
0.4386062676
 40
0.5100561976
 40
0.5809159487
 40
0.6500790287
 40
0.7793548491
 40
0.8388927127
 40
0.8949536638
 40
0.948249955
 40
1.0
 40
1.0
 40
1.0
 40
1.0
 10
17.3635798976
 20
13.9913459178
 30
0.0
 10
17.3647816343
 20
13.989959526
 30
0.0
 10
17.3676196572
 20
13.9874202979
 30
0.0
 10
17.372759209
 20
13.984609725
 30
0.0
 10
17.3786820085
 20
13.9827929268
 30
0.0
 10
17.3875398951
 20
13.9817395885
 30
0.0
 10
17.3969007685
 20
13.9829087437
 30
0.0
 10
17.4059708647
 20
13.9859625998
 30
0.0
 10
17.4125712058
 20
13.9892107895
 30
0.0
 10
17.4186342421
 20
13.9932740606
 30
0.0
 10
17.4255652733
 20
13.9994428998
 30
0.0
 10
17.4309107637
 20
14.0067589746
 30
0.0
 10
17.4338725077
 20
14.0146932498
 30
0.0
 10
17.4347688029
 20
14.0204807456
 30
0.0
 10
17.4343466245
 20
14.0260574344
 30
0.0
 10
17.4331722236
 20
14.0295237646
 30
0.0
 10
17.432388177
 20
14.031121858
 30
0.0
  0
SPLINE
  5
3BD
100
AcDbEntity
  8
02___PRT_ALL_AXES
100
AcDbSpline
 62
7
  6
BYLAYER
 70
0
 71
3
 72
11
 73
7
 74
0
 42
0.0000001
 43
0.0000001
 44
0.0000000001
 40
0.0
 40
0.0
 40
0.0
 40
0.0
 40
0.2644202521
 40
0.5170856368
 40
0.7609150129
 40
1.0
 40
1.0
 40
1.0
 40
1.0
 10
17.7377305854
 20
14.0135017486
 30
0.0
 10
17.7382003549
 20
14.015021923
 30
0.0
 10
17.738888471
 20
14.018073868
 30
0.0
 10
17.7390956131
 20
14.0226734034
 30
0.0
 10
17.7384418414
 20
14.0270794911
 30
0.0
 10
17.7374318099
 20
14.0298302373
 30
0.0
 10
17.7367981813
 20
14.0311218407
 30
0.0
  0
SPLINE
  5
3BE
100
AcDbEntity
  8
02___PRT_ALL_AXES
100
AcDbSpline
 62
7
  6
BYLAYER
 70
0
 71
3
 72
13
 73
9
 74
0
 42
0.0000001
 43
0.0000001
 44
0.0000000001
 40
0.0
 40
0.0
 40
0.0
 40
0.0
 40
0.2850276125
 40
0.5476028922
 40
0.6688652013
 40
0.7835806064
 40
0.8931954405
 40
1.0
 40
1.0
 40
1.0
 40
1.0
 10
17.8787729262
 20
13.8082837382
 30
0.0
 10
17.8824610914
 20
13.8107675927
 30
0.0
 10
17.8889998611
 20
13.816429443
 30
0.0
 10
17.894801535
 20
13.8253254167
 30
0.0
 10
17.8972122975
 20
13.8327638196
 30
0.0
 10
17.8978516003
 20
13.8381567787
 30
0.0
 10
17.8973349729
 20
13.8433393316
 30
0.0
 10
17.8962119308
 20
13.8465637566
 30
0.0
 10
17.8954780883
 20
13.8480596591
 30
0.0
  0
SPLINE
  5
3BF
100
AcDbEntity
  8
0
100
AcDbSpline
 62
7
  6
BYLAYER
 70
0
 71
3
 72
14
 73
10
 74
0
 42
0.0000001
 43
0.0000001
 44
0.0000000001
 40
0.0
 40
0.0
 40
0.0
 40
0.0
 40
0.2765277985
 40
0.4076036783
 40
0.5337392094
 40
0.6552717112
 40
0.7728364907
 40
0.8873571066
 40
1.0
 40
1.0
 40
1.0
 40
1.0
 10
17.386093167
 20
13.4873604487
 30
0.0
 10
17.3673490615
 20
13.4873604487
 30
0.0
 10
17.3395697064
 20
13.4899943518
 30
0.0
 10
17.304602552
 20
13.4995313873
 30
0.0
 10
17.2807724624
 20
13.5092737957
 30
0.0
 10
17.2592199781
 20
13.5216092099
 30
0.0
 10
17.2402372905
 20
13.5363867218
 30
0.0
 10
17.2241000616
 20
13.5534084038
 30
0.0
 10
17.2153483666
 20
13.5661714068
 30
0.0
 10
17.2115521099
 20
13.5727961492
 30
0.0
  0
SPLINE
  5
3C0
100
AcDbEntity
  8
0
100
AcDbSpline
 62
7
  6
BYLAYER
 70
0
 71
3
 72
21
 73
17
 74
0
 42
0.0000001
 43
0.0000001
 44
0.0000000001
 40
0.0
 40
0.0
 40
0.0
 40
0.0
 40
0.0504341614
 40
0.1019207088
 40
0.1551142668
 40
0.2104962714
 40
0.2683503687
 40
0.3287636859
 40
0.3916445522
 40
0.4567486543
 40
0.5237074787
 40
0.5920572404
 40
0.7306069798
 40
0.7998121324
 40
0.8681527002
 40
1.0
 40
1.0
 40
1.0
 40
1.0
 10
17.700699499
 20
13.8128320349
 30
0.0
 10
17.7040393809
 20
13.8047532911
 30
0.0
 10
17.7092864341
 20
13.7877628758
 30
0.0
 10
17.7125150606
 20
13.7609394782
 30
0.0
 10
17.7111271995
 20
13.733104328
 30
0.0
 10
17.7051738653
 20
13.7047665823
 30
0.0
 10
17.6947867322
 20
13.6764148894
 30
0.0
 10
17.6801646247
 20
13.6485342786
 30
0.0
 10
17.6615723416
 20
13.6215980519
 30
0.0
 10
17.6393388268
 20
13.5960659335
 30
0.0
 10
17.6138479585
 20
13.5723712631
 30
0.0
 10
17.5759684009
 20
13.5436646008
 30
0.0
 10
17.5337294257
 20
13.5204294614
 30
0.0
 10
17.4888854897
 20
13.503538673
 30
0.0
 10
17.4437543475
 20
13.4913788098
 30
0.0
 10
17.4089466576
 20
13.4873604487
 30
0.0
 10
17.386093167
 20
13.4873604487
 30
0.0
  0
SPLINE
  5
3C1
100
AcDbEntity
  8
0
100
AcDbSpline
 62
7
  6
BYLAYER
 70
0
 71
3
 72
20
 73
16
 74
0
 42
0.0000001
 43
0.0000001
 44
0.0000000001
 40
0.0
 40
0.0
 40
0.0
 40
0.0
 40
0.1707463167
 40
0.3285305723
 40
0.4724988126
 40
0.5391826776
 40
0.6023174951
 40
0.6619574441
 40
0.7182116238
 40
0.7712538055
 40
0.8213315366
 40
0.8687767295
 40
0.9140127824
 40
0.9575546559
 40
1.0
 40
1.0
 40
1.0
 40
1.0
 10
17.137191432
 20
12.8467726918
 30
0.0
 10
17.1416181253
 20
12.8610974764
 30
0.0
 10
17.1509664768
 20
12.8884159619
 30
0.0
 10
17.1671932586
 20
12.9266416025
 30
0.0
 10
17.1823369178
 20
12.955292501
 30
0.0
 10
17.1952325729
 20
12.975595552
 30
0.0
 10
17.2049574031
 20
12.9891064574
 30
0.0
 10
17.2149554812
 20
13.0012537574
 30
0.0
 10
17.2252004401
 20
13.0120023046
 30
0.0
 10
17.2356650287
 20
13.0213206395
 30
0.0
 10
17.2463225126
 20
13.0291799652
 30
0.0
 10
17.257145227
 20
13.0355538897
 30
0.0
 10
17.2681049536
 20
13.0404184709
 30
0.0
 10
17.279167052
 20
13.0437513536
 30
0.0
 10
17.2866499332
 20
13.0449499985
 30
0.0
 10
17.2903622564
 20
13.0452816591
 30
0.0
  0
SPLINE
  5
3C2
100
AcDbEntity
  8
0
100
AcDbSpline
 62
7
  6
BYLAYER
 70
0
 71
3
 72
14
 73
10
 74
0
 42
0.0000001
 43
0.0000001
 44
0.0000000001
 40
0.0
 40
0.0
 40
0.0
 40
0.0
 40
0.1114523221
 40
0.2284943536
 40
0.350344893
 40
0.4761450093
 40
0.6049822325
 40
0.7359018243
 40
1.0
 40
1.0
 40
1.0
 40
1.0
 10
17.137191432
 20
12.8467726918
 30
0.0
 10
17.1330760591
 20
12.83345534
 30
0.0
 10
17.1254016604
 20
12.8059127621
 30
0.0
 10
17.1157141679
 20
12.7631662935
 30
0.0
 10
17.1076305738
 20
12.7182635129
 30
0.0
 10
17.1012240843
 20
12.6716035115
 30
0.0
 10
17.0965514923
 20
12.6235979119
 30
0.0
 10
17.0926809805
 20
12.5581864244
 30
0.0
 10
17.0924973055
 20
12.5087248411
 30
0.0
 10
17.0935882742
 20
12.4757135582
 30
0.0
  0
SPLINE
  5
3C3
100
AcDbEntity
  8
02___PRT_ALL_AXES
100
AcDbSpline
 62
7
  6
BYLAYER
 70
0
 71
3
 72
12
 73
8
 74
0
 42
0.0000001
 43
0.0000001
 44
0.0000000001
 40
0.0
 40
0.0
 40
0.0
 40
0.0
 40
0.3156248899
 40
0.5814722806
 40
0.8037155963
 40
0.9036880776
 40
1.0
 40
1.0
 40
1.0
 40
1.0
 10
18.0371417651
 20
12.9556387752
 30
0.0
 10
18.0377732036
 20
12.9543520388
 30
0.0
 10
18.0390858477
 20
12.9520464197
 30
0.0
 10
18.0414447275
 20
12.9492300229
 30
0.0
 10
18.0436772146
 20
12.9476708376
 30
0.0
 10
18.0454929911
 20
12.9470699654
 30
0.0
 10
18.0463871149
 20
12.9469718997
 30
0.0
 10
18.0468244878
 20
12.9469719068
 30
0.0
  0
SPLINE
  5
3C4
100
AcDbEntity
  8
02___PRT_ALL_AXES
100
AcDbSpline
 62
7
  6
BYLAYER
 70
0
 71
3
 72
27
 73
23
 74
0
 42
0.0000001
 43
0.0000001
 44
0.0000000001
 40
0.0
 40
0.0
 40
0.0
 40
0.0
 40
0.0365543145
 40
0.0577236384
 40
0.0811775824
 40
0.1070411492
 40
0.1353331506
 40
0.1988579178
 40
0.2706300455
 40
0.3488380637
 40
0.4312678551
 40
0.5154690607
 40
0.5988969118
 40
0.6790476185
 40
0.753596068
 40
0.8205494401
 40
0.8784468499
 40
0.9266705119
 40
0.9473839634
 40
0.9661578409
 40
0.9834724891
 40
1.0
 40
1.0
 40
1.0
 40
1.0
 10
17.946092422
 20
12.7065046303
 30
0.0
 10
17.9450443917
 20
12.7061948483
 30
0.0
 10
17.9435072063
 20
12.7052925579
 30
0.0
 10
17.9417534897
 20
12.7036140624
 30
0.0
 10
17.9404270916
 20
12.7019680115
 30
0.0
 10
17.9391709819
 20
12.7000134539
 30
0.0
 10
17.9375361904
 20
12.6968937135
 30
0.0
 10
17.9357709885
 20
12.6923159748
 30
0.0
 10
17.9341406462
 20
12.6861350335
 30
0.0
 10
17.9329821326
 20
12.6792753582
 30
0.0
 10
17.9323374943
 20
12.6719769516
 30
0.0
 10
17.9322305701
 20
12.6644951013
 30
0.0
 10
17.9326652643
 20
12.6570932792
 30
0.0
 10
17.9336256104
 20
12.6500313317
 30
0.0
 10
17.9350760891
 20
12.6435561491
 30
0.0
 10
17.9369655117
 20
12.6378875566
 30
0.0
 10
17.939226884
 20
12.6332164807
 30
0.0
 10
17.9414778885
 20
12.6301190132
 30
0.0
 10
17.9434368825
 20
12.6283611491
 30
0.0
 10
17.9448817443
 20
12.6274500833
 30
0.0
 10
17.9463657618
 20
12.6268930073
 30
0.0
 10
17.9473814459
 20
12.626766866
 30
0.0
 10
17.9478755646
 20
12.6267670921
 30
0.0
  0
SPLINE
  5
3C5
100
AcDbEntity
  8
02___PRT_ALL_AXES
100
AcDbSpline
 62
7
  6
BYLAYER
 70
0
 71
3
 72
19
 73
15
 74
0
 42
0.0000001
 43
0.0000001
 44
0.0000000001
 40
0.0
 40
0.0
 40
0.0
 40
0.0
 40
0.1393866796
 40
0.2927780429
 40
0.4502723744
 40
0.601482691
 40
0.6716960273
 40
0.7368633404
 40
0.7961296553
 40
0.8488964717
 40
0.89493011
 40
0.934536435
 40
0.9688288018
 40
1.0
 40
1.0
 40
1.0
 40
1.0
 10
17.9538749143
 20
12.285537335
 30
0.0
 10
17.9529022537
 20
12.2823898041
 30
0.0
 10
17.9514156735
 20
12.2756039423
 30
0.0
 10
17.9503933844
 20
12.2649914562
 30
0.0
 10
17.9505165031
 20
12.2540503001
 30
0.0
 10
17.9515875316
 20
12.2451356834
 30
0.0
 10
17.9530472578
 20
12.2385163833
 30
0.0
 10
17.9543654019
 20
12.2341037434
 30
0.0
 10
17.9559073903
 20
12.2302031274
 30
0.0
 10
17.9576450865
 20
12.2268860408
 30
0.0
 10
17.9595497411
 20
12.2242104553
 30
0.0
 10
17.9615999335
 20
12.2222224384
 30
0.0
 10
17.9637821673
 20
12.2209691186
 30
0.0
 10
17.9653397272
 20
12.2206729613
 30
0.0
 10
17.9660764557
 20
12.2206729365
 30
0.0
  0
SPLINE
  5
3C6
100
AcDbEntity
  8
02___PRT_ALL_AXES
100
AcDbSpline
 62
7
  6
BYLAYER
 70
0
 71
3
 72
17
 73
13
 74
0
 42
0.0000001
 43
0.0000001
 44
0.0000000001
 40
0.0
 40
0.0
 40
0.0
 40
0.0
 40
0.1734341554
 40
0.338959186
 40
0.4922122091
 40
0.6294928998
 40
0.748190817
 40
0.8473818977
 40
0.8902154088
 40
0.9292258956
 40
0.9653836888
 40
1.0
 40
1.0
 40
1.0
 40
1.0
 10
18.0752956694
 20
12.0019999744
 30
0.0
 10
18.075402262
 20
11.9996219746
 30
0.0
 10
18.075773806
 20
11.9949797653
 30
0.0
 10
18.0768195864
 20
11.9882985958
 30
0.0
 10
18.0783102036
 20
11.9822104523
 30
0.0
 10
18.0801975168
 20
11.9769064666
 30
0.0
 10
18.0824200402
 20
11.9725511907
 30
0.0
 10
18.0846085651
 20
11.9696761489
 30
0.0
 10
18.0864986918
 20
11.9680493557
 30
0.0
 10
18.0878919301
 20
11.9672059099
 30
0.0
 10
18.0893194868
 20
11.9666907335
 30
0.0
 10
18.0902943214
 20
11.9665741459
 30
0.0
 10
18.090769431
 20
11.9665740524
 30
0.0
  0
SPLINE
  5
3C7
100
AcDbEntity
  8
02___PRT_ALL_AXES
100
AcDbSpline
 62
7
  6
BYLAYER
 70
0
 71
3
 72
12
 73
8
 74
0
 42
0.0000001
 43
0.0000001
 44
0.0000000001
 40
0.0
 40
0.0
 40
0.0
 40
0.0
 40
0.3156248899
 40
0.5814722806
 40
0.8037155963
 40
0.9036880776
 40
1.0
 40
1.0
 40
1.0
 40
1.0
 10
18.2392280557
 20
12.0219848889
 30
0.0
 10
18.2398594942
 20
12.0206981526
 30
0.0
 10
18.2411721383
 20
12.0183925334
 30
0.0
 10
18.2435310181
 20
12.0155761367
 30
0.0
 10
18.2457635052
 20
12.0140169514
 30
0.0
 10
18.2475792816
 20
12.0134160792
 30
0.0
 10
18.2484734055
 20
12.0133180135
 30
0.0
 10
18.2489107783
 20
12.0133180206
 30
0.0
  0
SPLINE
  5
3C8
100
AcDbEntity
  8
02___PRT_ALL_AXES
100
AcDbSpline
 62
7
  6
BYLAYER
 70
0
 71
3
 72
27
 73
23
 74
0
 42
0.0000001
 43
0.0000001
 44
0.0000000001
 40
0.0
 40
0.0
 40
0.0
 40
0.0
 40
0.0365543145
 40
0.0577236384
 40
0.0811775824
 40
0.1070411492
 40
0.1353331506
 40
0.1988579178
 40
0.2706300455
 40
0.3488380637
 40
0.4312678551
 40
0.5154690607
 40
0.5988969118
 40
0.6790476185
 40
0.753596068
 40
0.8205494401
 40
0.8784468499
 40
0.9266705119
 40
0.9473839634
 40
0.9661578409
 40
0.9834724891
 40
1.0
 40
1.0
 40
1.0
 40
1.0
 10
18.3460802699
 20
12.4132604181
 30
0.0
 10
18.3450322396
 20
12.4129506362
 30
0.0
 10
18.3434950542
 20
12.4120483458
 30
0.0
 10
18.3417413376
 20
12.4103698503
 30
0.0
 10
18.3404149395
 20
12.4087237994
 30
0.0
 10
18.3391588298
 20
12.4067692417
 30
0.0
 10
18.3375240383
 20
12.4036495014
 30
0.0
 10
18.3357588364
 20
12.3990717627
 30
0.0
 10
18.3341284941
 20
12.3928908214
 30
0.0
 10
18.3329699805
 20
12.3860311461
 30
0.0
 10
18.3323253421
 20
12.3787327395
 30
0.0
 10
18.332218418
 20
12.3712508892
 30
0.0
 10
18.3326531121
 20
12.363849067
 30
0.0
 10
18.3336134583
 20
12.3567871195
 30
0.0
 10
18.3350639369
 20
12.3503119369
 30
0.0
 10
18.3369533596
 20
12.3446433445
 30
0.0
 10
18.3392147318
 20
12.3399722686
 30
0.0
 10
18.3414657364
 20
12.3368748011
 30
0.0
 10
18.3434247304
 20
12.335116937
 30
0.0
 10
18.3448695921
 20
12.3342058712
 30
0.0
 10
18.3463536096
 20
12.3336487951
 30
0.0
 10
18.3473692937
 20
12.3335226539
 30
0.0
 10
18.3478634125
 20
12.33352288
 30
0.0
  0
SPLINE
  5
3C9
100
AcDbEntity
  8
02___PRT_ALL_AXES
100
AcDbSpline
 62
7
  6
BYLAYER
 70
0
 71
3
 72
19
 73
15
 74
0
 42
0.0000001
 43
0.0000001
 44
0.0000000001
 40
0.0
 40
0.0
 40
0.0
 40
0.0
 40
0.1393866796
 40
0.2927780429
 40
0.4502723744
 40
0.601482691
 40
0.6716960273
 40
0.7368633404
 40
0.7961296553
 40
0.8488964717
 40
0.89493011
 40
0.934536435
 40
0.9688288018
 40
1.0
 40
1.0
 40
1.0
 40
1.0
 10
18.317456863
 20
12.8044812794
 30
0.0
 10
18.3164842024
 20
12.8013337485
 30
0.0
 10
18.3149976222
 20
12.7945478867
 30
0.0
 10
18.313975333
 20
12.7839354006
 30
0.0
 10
18.3140984518
 20
12.7729942444
 30
0.0
 10
18.3151694802
 20
12.7640796278
 30
0.0
 10
18.3166292064
 20
12.7574603277
 30
0.0
 10
18.3179473506
 20
12.7530476878
 30
0.0
 10
18.3194893389
 20
12.7491470718
 30
0.0
 10
18.3212270351
 20
12.7458299851
 30
0.0
 10
18.3231316898
 20
12.7431543997
 30
0.0
 10
18.3251818822
 20
12.7411663828
 30
0.0
 10
18.327364116
 20
12.739913063
 30
0.0
 10
18.3289216758
 20
12.7396169057
 30
0.0
 10
18.3296584044
 20
12.7396168809
 30
0.0
  0
SPLINE
  5
3CA
100
AcDbEntity
  8
02___PRT_ALL_AXES
100
AcDbSpline
 62
7
  6
BYLAYER
 70
0
 71
3
 72
17
 73
13
 74
0
 42
0.0000001
 43
0.0000001
 44
0.0000000001
 40
0.0
 40
0.0
 40
0.0
 40
0.0
 40
0.1734341554
 40
0.338959186
 40
0.4922122091
 40
0.6294928998
 40
0.748190817
 40
0.8473818977
 40
0.8902154088
 40
0.9292258956
 40
0.9653836888
 40
1.0
 40
1.0
 40
1.0
 40
1.0
 10
18.1894903444
 20
13.0291417508
 30
0.0
 10
18.1895969369
 20
13.026763751
 30
0.0
 10
18.189968481
 20
13.0221215416
 30
0.0
 10
18.1910142614
 20
13.0154403722
 30
0.0
 10
18.1925048786
 20
13.0093522286
 30
0.0
 10
18.1943921918
 20
13.004048243
 30
0.0
 10
18.1966147152
 20
12.9996929671
 30
0.0
 10
18.1988032401
 20
12.9968179252
 30
0.0
 10
18.2006933668
 20
12.9951911321
 30
0.0
 10
18.2020866051
 20
12.9943476863
 30
0.0
 10
18.2035141618
 20
12.9938325098
 30
0.0
 10
18.2044889964
 20
12.9937159222
 30
0.0
 10
18.204964106
 20
12.9937158287
 30
0.0
  0
SPLINE
  5
3CB
100
AcDbEntity
  8
0
100
AcDbSpline
 62
7
  6
BYLAYER
 70
0
 71
3
 72
15
 73
11
 74
0
 42
0.0000001
 43
0.0000001
 44
0.0000000001
 40
0.0
 40
0.0
 40
0.0
 40
0.0
 40
0.1639879258
 40
0.315433665
 40
0.4543869286
 40
0.5813401534
 40
0.6973096392
 40
0.8039851405
 40
0.9038198887
 40
1.0
 40
1.0
 40
1.0
 40
1.0
 10
18.0793187817
 20
12.29832097
 30
0.0
 10
18.0816445979
 20
12.2935814549
 30
0.0
 10
18.0864176362
 20
12.2846061665
 30
0.0
 10
18.0942887702
 20
12.2722554816
 30
0.0
 10
18.1025429549
 20
12.2616245006
 30
0.0
 10
18.1111313908
 20
12.2527857151
 30
0.0
 10
18.1200086859
 20
12.2458029467
 30
0.0
 10
18.1291319524
 20
12.2407383851
 30
0.0
 10
18.1384418257
 20
12.2376578404
 30
0.0
 10
18.1447717716
 20
12.2369630236
 30
0.0
 10
18.1478681981
 20
12.2369630921
 30
0.0
  0
SPLINE
  5
3CC
100
AcDbEntity
  8
0
100
AcDbSpline
 62
7
  6
BYLAYER
 70
0
 71
3
 72
18
 73
14
 74
0
 42
0.0000001
 43
0.0000001
 44
0.0000000001
 40
0.0
 40
0.0
 40
0.0
 40
0.0
 40
0.1204571459
 40
0.2519902307
 40
0.3207883227
 40
0.3905620315
 40
0.5295591467
 40
0.662890184
 40
0.7857638756
 40
0.8428436116
 40
0.8971380464
 40
0.9492289104
 40
1.0
 40
1.0
 40
1.0
 40
1.0
 10
17.3707312353
 20
12.9513161864
 30
0.0
 10
17.3701375272
 20
12.9493949463
 30
0.0
 10
17.3681808713
 20
12.9455843708
 30
0.0
 10
17.3645058803
 20
12.9416143555
 30
0.0
 10
17.3609096343
 20
12.9388801842
 30
0.0
 10
17.3569167458
 20
12.9365123348
 30
0.0
 10
17.3515372231
 20
12.9344411824
 30
0.0
 10
17.3449425315
 20
12.9335298381
 30
0.0
 10
17.3396701687
 20
12.9341920471
 30
0.0
 10
17.3360091678
 20
12.9356154496
 30
0.0
 10
17.3336686234
 20
12.9370505173
 30
0.0
 10
17.3317313784
 20
12.9388455648
 30
0.0
 10
17.3307372352
 20
12.9402650755
 30
0.0
 10
17.330330102
 20
12.9410084474
 30
0.0
  0
SPLINE
  5
3CD
100
AcDbEntity
  8
0
100
AcDbSpline
 62
7
  6
BYLAYER
 70
0
 71
3
 72
22
 73
18
 74
0
 42
0.0000001
 43
0.0000001
 44
0.0000000001
 40
0.0
 40
0.0
 40
0.0
 40
0.0
 40
0.1726685391
 40
0.2539493381
 40
0.3316741629
 40
0.4057410704
 40
0.4760841698
 40
0.542678084
 40
0.6055437131
 40
0.6647580925
 40
0.7204639095
 40
0.7728808776
 40
0.8223183012
 40
0.8691857011
 40
0.9139978696
 40
0.9573703209
 40
1.0
 40
1.0
 40
1.0
 40
1.0
 10
17.8026797237
 20
12.9369061372
 30
0.0
 10
17.808546183
 20
12.9558900066
 30
0.0
 10
17.8180481175
 20
12.9835592151
 30
0.0
 10
17.8325060683
 20
13.0188903523
 30
0.0
 10
17.843682014
 20
13.0432810563
 30
0.0
 10
17.8553735474
 20
13.0660231926
 30
0.0
 10
17.8675448824
 20
13.0870463147
 30
0.0
 10
17.8801586775
 20
13.1062851508
 30
0.0
 10
17.8931772146
 20
13.1236801078
 30
0.0
 10
17.9065620692
 20
13.139177309
 30
0.0
 10
17.920274844
 20
13.1527282338
 30
0.0
 10
17.9342773192
 20
13.1642889703
 30
0.0
 10
17.9485311399
 20
13.173819549
 30
0.0
 10
17.9629961313
 20
13.1812831959
 30
0.0
 10
17.9776302938
 20
13.1866458022
 30
0.0
 10
17.9923802767
 20
13.189877476
 30
0.0
 10
18.0022912942
 20
13.1905994192
 30
0.0
 10
18.0071968574
 20
13.1905993883
 30
0.0
  0
SPLINE
  5
3CE
100
AcDbEntity
  8
0
100
AcDbSpline
 62
7
  6
BYLAYER
 70
0
 71
3
 72
34
 73
30
 74
0
 42
0.0000001
 43
0.0000001
 44
0.0000000001
 40
0.0
 40
0.0
 40
0.0
 40
0.0
 40
0.03305408
 40
0.0673899343
 40
0.102882349
 40
0.139398835
 40
0.2149197538
 40
0.2927514709
 40
0.3716143974
 40
0.4110271906
 40
0.4502065662
 40
0.5272116997
 40
0.6013819518
 40
0.6370390667
 40
0.6715585813
 40
0.7048152115
 40
0.7366950967
 40
0.7670978176
 40
0.7959387847
 40
0.8231521618
 40
0.8486945317
 40
0.8725495738
 40
0.8947340777
 40
0.9153055935
 40
0.9343717833
 40
0.9521008175
 40
0.9687305738
 40
0.9845719766
 40
1.0
 40
1.0
 40
1.0
 40
1.0
 10
17.8026797237
 20
12.9369061372
 30
0.0
 10
17.7988110017
 20
12.9243869485
 30
0.0
 10
17.7914501624
 20
12.8986978878
 30
0.0
 10
17.7816838755
 20
12.8590913721
 30
0.0
 10
17.7730173456
 20
12.8178259778
 30
0.0
 10
17.7628734483
 20
12.7602199067
 30
0.0
 10
17.7533034066
 20
12.6855128497
 30
0.0
 10
17.7468315381
 20
12.5936408161
 30
0.0
 10
17.7456183595
 20
12.515867034
 30
0.0
 10
17.7471894402
 20
12.4534616853
 30
0.0
 10
17.7504363482
 20
12.3918584359
 30
0.0
 10
17.7575342446
 20
12.3166900343
 30
0.0
 10
17.7688177468
 20
12.2434384462
 30
0.0
 10
17.780294253
 20
12.1873693992
 30
0.0
 10
17.789896679
 20
12.1474974195
 30
0.0
 10
17.8005585875
 20
12.1094476634
 30
0.0
 10
17.8122281274
 20
12.0734050148
 30
0.0
 10
17.8248481876
 20
12.0395444784
 30
0.0
 10
17.8383574838
 20
12.0080298083
 30
0.0
 10
17.852690946
 20
11.9790127291
 30
0.0
 10
17.8677804843
 20
11.9526321299
 30
0.0
 10
17.8835559186
 20
11.929013503
 30
0.0
 10
17.8999462262
 20
11.9082688011
 30
0.0
 10
17.9168808198
 20
11.890497116
 30
0.0
 10
17.9342909298
 20
11.8757867432
 30
0.0
 10
17.9521077417
 20
11.8642189805
 30
0.0
 10
17.9702613252
 20
11.8558724512
 30
0.0
 10
17.9886567524
 20
11.850822985
 30
0.0
 10
18.0010800131
 20
11.8496904673
 30
0.0
 10
18.007196002
 20
11.8496904287
 30
0.0
  0
SPLINE
  5
3CF
100
AcDbEntity
  8
0
100
AcDbSpline
 62
7
  6
BYLAYER
 70
0
 71
3
 72
31
 73
27
 74
0
 42
0.0000001
 43
0.0000001
 44
0.0000000001
 40
0.0
 40
0.0
 40
0.0
 40
0.0
 40
0.0155006603
 40
0.0315033918
 40
0.04845458
 40
0.0667108843
 40
0.0865311865
 40
0.1080853564
 40
0.1314690545
 40
0.1567184171
 40
0.1838223464
 40
0.2127319716
 40
0.2433678205
 40
0.2756252511
 40
0.3444715195
 40
0.4180904414
 40
0.4950891244
 40
0.5739482558
 40
0.6530824723
 40
0.7308966927
 40
0.8058424842
 40
0.8764761864
 40
0.9097770415
 40
0.9415398993
 40
0.9716479459
 40
1.0
 40
1.0
 40
1.0
 40
1.0
 10
18.1478669286
 20
12.8033267248
 30
0.0
 10
18.1450176078
 20
12.8033266617
 30
0.0
 10
18.1392113385
 20
12.8027414528
 30
0.0
 10
18.1306420173
 20
12.8001393399
 30
0.0
 10
18.1222143523
 20
12.7958495574
 30
0.0
 10
18.1139785032
 20
12.7899197019
 30
0.0
 10
18.1059706606
 20
12.782396708
 30
0.0
 10
18.098227909
 20
12.7733286812
 30
0.0
 10
18.0907882504
 20
12.762768693
 30
0.0
 10
18.0836909442
 20
12.7507771835
 30
0.0
 10
18.0769752674
 20
12.7374228879
 30
0.0
 10
18.0706796952
 20
12.7227829848
 30
0.0
 10
18.064840529
 20
12.7069426216
 30
0.0
 10
18.057552321
 20
12.6838412524
 30
0.0
 10
18.0499111933
 20
12.6526069471
 30
0.0
 10
18.0432026621
 20
12.6127965749
 30
0.0
 10
18.0389299977
 20
12.5708026164
 30
0.0
 10
18.0371963154
 20
12.5276153364
 30
0.0
 10
18.0380440476
 20
12.4842518756
 30
0.0
 10
18.0414524557
 20
12.44173404
 30
0.0
 10
18.0473390287
 20
12.4010651925
 30
0.0
 10
18.0543203863
 20
12.3688973462
 30
0.0
 10
18.0611086035
 20
12.3448880242
 30
0.0
 10
18.0666135771
 20
12.3282753364
 30
0.0
 10
18.0725987763
 20
12.3128009608
 30
0.0
 10
18.077022825
 20
12.3029996379
 30
0.0
 10
18.0793187817
 20
12.29832097
 30
0.0
  0
SPLINE
  5
3D0
100
AcDbEntity
  8
02___PRT_ALL_AXES
100
AcDbSpline
 62
7
  6
BYLAYER
 70
0
 71
3
 72
14
 73
10
 74
0
 42
0.0000001
 43
0.0000001
 44
0.0000000001
 40
0.0
 40
0.0
 40
0.0
 40
0.0
 40
0.1030873722
 40
0.2104449495
 40
0.3251273199
 40
0.4484036238
 40
0.579823456
 40
0.7175916595
 40
1.0
 40
1.0
 40
1.0
 40
1.0
 10
17.8236580252
 20
13.8128194789
 30
0.0
 10
17.8245928464
 20
13.8109138914
 30
0.0
 10
17.8271241834
 20
13.8073003582
 30
0.0
 10
17.8324655427
 20
13.8031280629
 30
0.0
 10
17.8390747773
 20
13.8003200325
 30
0.0
 10
17.8466156411
 20
13.7989750114
 30
0.0
 10
17.8547432312
 20
13.7991275563
 30
0.0
 10
17.8659266124
 20
13.8013104408
 30
0.0
 10
17.8739499968
 20
13.8050356584
 30
0.0
 10
17.8787729262
 20
13.8082837382
 30
0.0
  0
SPLINE
  5
3D1
100
AcDbEntity
  8
02___PRT_ALL_AXES
100
AcDbSpline
 62
7
  6
BYLAYER
 70
0
 71
3
 72
19
 73
15
 74
0
 42
0.0000001
 43
0.0000001
 44
0.0000000001
 40
0.0
 40
0.0
 40
0.0
 40
0.0
 40
0.0507459952
 40
0.1026294472
 40
0.1566080379
 40
0.2133381529
 40
0.335623381
 40
0.4012047648
 40
0.4690057161
 40
0.6081751752
 40
0.7469361473
 40
0.8142544212
 40
0.8792081901
 40
1.0
 40
1.0
 40
1.0
 40
1.0
 10
17.66497811
 20
13.9958816565
 30
0.0
 10
17.6656531144
 20
13.9945057117
 30
0.0
 10
17.6673346308
 20
13.9918666474
 30
0.0
 10
17.6707004156
 20
13.9884964664
 30
0.0
 10
17.6748262976
 20
13.9857753235
 30
0.0
 10
17.681341609
 20
13.9830328437
 30
0.0
 10
17.6887837128
 20
13.9819451262
 30
0.0
 10
17.6965059893
 20
13.9823551905
 30
0.0
 10
17.7046267738
 20
13.9838219769
 30
0.0
 10
17.7144993987
 20
13.987510033
 30
0.0
 10
17.7232892536
 20
13.9933001821
 30
0.0
 10
17.7292174462
 20
13.9989763579
 30
0.0
 10
17.7340265029
 20
14.0049292983
 30
0.0
 10
17.7366535007
 20
14.0100163011
 30
0.0
 10
17.7377305854
 20
14.0135017486
 30
0.0
  0
SPLINE
  5
3D2
100
AcDbEntity
  8
02___PRT_ALL_AXES
100
AcDbSpline
 62
7
  6
BYLAYER
 70
0
 71
3
 72
9
 73
5
 74
0
 42
0.0000001
 43
0.0000001
 44
0.0000000001
 40
0.0
 40
0.0
 40
0.0
 40
0.0
 40
0.249055861
 40
1.0
 40
1.0
 40
1.0
 40
1.0
 10
17.3605680353
 20
13.9958816392
 30
0.0
 10
17.3607674392
 20
13.9954752016
 30
0.0
 10
17.3616210512
 20
13.9938697042
 30
0.0
 10
17.3626858217
 20
13.9923773747
 30
0.0
 10
17.3635798976
 20
13.9913459178
 30
0.0
  0
SPLINE
  5
3D3
100
AcDbEntity
  8
02___PRT_ALL_AXES
100
AcDbSpline
 62
7
  6
BYLAYER
 70
0
 71
3
 72
13
 73
9
 74
0
 42
0.0000001
 43
0.0000001
 44
0.0000000001
 40
0.0
 40
0.0
 40
0.0
 40
0.0
 40
0.112901454
 40
0.2273080665
 40
0.3445816013
 40
0.4658270975
 40
0.7224524585
 40
1.0
 40
1.0
 40
1.0
 40
1.0
 10
17.0887471795
 20
13.812819479
 30
0.0
 10
17.0892633471
 20
13.811767296
 30
0.0
 10
17.0904851789
 20
13.8097332368
 30
0.0
 10
17.0928219622
 20
13.8070049764
 30
0.0
 10
17.0956312814
 20
13.804629718
 30
0.0
 10
17.1000257872
 20
13.8019313969
 30
0.0
 10
17.1065260948
 20
13.7996564334
 30
0.0
 10
17.1120934797
 20
13.7991064926
 30
0.0
 10
17.1149745579
 20
13.7991064926
 30
0.0
  0
SPLINE
  5
3D4
100
AcDbEntity
  8
02___PRT_ALL_AXES
100
AcDbSpline
 62
7
  6
BYLAYER
 70
0
 71
3
 72
14
 73
10
 74
0
 42
0.0000001
 43
0.0000001
 44
0.0000000001
 40
0.0
 40
0.0
 40
0.0
 40
0.0
 40
0.1030873722
 40
0.2104449495
 40
0.3251273199
 40
0.4484036238
 40
0.579823456
 40
0.7175916595
 40
1.0
 40
1.0
 40
1.0
 40
1.0
 10
17.0087444221
 20
13.5539304617
 30
0.0
 10
17.0096792432
 20
13.5520248742
 30
0.0
 10
17.0122105803
 20
13.548411341
 30
0.0
 10
17.0175519396
 20
13.5442390457
 30
0.0
 10
17.0241611741
 20
13.5414310153
 30
0.0
 10
17.031702038
 20
13.5400859942
 30
0.0
 10
17.0398296281
 20
13.5402385391
 30
0.0
 10
17.0510130092
 20
13.5424214236
 30
0.0
 10
17.0590363937
 20
13.5461466412
 30
0.0
 10
17.0638593231
 20
13.549394721
 30
0.0
  0
SPLINE
  5
3D5
100
AcDbEntity
  8
02___PRT_ALL_AXES
100
AcDbSpline
 62
7
  6
BYLAYER
 70
0
 71
3
 72
19
 73
15
 74
0
 42
0.0000001
 43
0.0000001
 44
0.0000000001
 40
0.0
 40
0.0
 40
0.0
 40
0.0
 40
0.0507459952
 40
0.1026294472
 40
0.1566080379
 40
0.2133381529
 40
0.335623381
 40
0.4012047648
 40
0.4690057161
 40
0.6081751752
 40
0.7469361473
 40
0.8142544212
 40
0.8792081901
 40
1.0
 40
1.0
 40
1.0
 40
1.0
 10
17.1674243291
 20
13.37086828
 30
0.0
 10
17.1680993334
 20
13.3694923352
 30
0.0
 10
17.1697808498
 20
13.3668532709
 30
0.0
 10
17.1731466346
 20
13.3634830899
 30
0.0
 10
17.1772725166
 20
13.3607619471
 30
0.0
 10
17.183787828
 20
13.3580194673
 30
0.0
 10
17.1912299318
 20
13.3569317497
 30
0.0
 10
17.1989522083
 20
13.3573418141
 30
0.0
 10
17.2070729928
 20
13.3588086005
 30
0.0
 10
17.2169456177
 20
13.3624966566
 30
0.0
 10
17.2257354726
 20
13.3682868057
 30
0.0
 10
17.2316636652
 20
13.3739629815
 30
0.0
 10
17.2364727219
 20
13.3799159219
 30
0.0
 10
17.2390997197
 20
13.3850029247
 30
0.0
 10
17.2401768044
 20
13.3884883722
 30
0.0
  0
SPLINE
  5
3D6
100
AcDbEntity
  8
02___PRT_ALL_AXES
100
AcDbSpline
 62
7
  6
BYLAYER
 70
0
 71
3
 72
9
 73
5
 74
0
 42
0.0000001
 43
0.0000001
 44
0.0000000001
 40
0.0
 40
0.0
 40
0.0
 40
0.0
 40
0.249055861
 40
1.0
 40
1.0
 40
1.0
 40
1.0
 10
17.4718343334
 20
13.3708682628
 30
0.0
 10
17.4720337372
 20
13.3704618251
 30
0.0
 10
17.4728873492
 20
13.3688563277
 30
0.0
 10
17.4739521198
 20
13.3673639982
 30
0.0
 10
17.4748461957
 20
13.3663325414
 30
0.0
  0
SPLINE
  5
3D7
100
AcDbEntity
  8
02___PRT_ALL_AXES
100
AcDbSpline
 62
7
  6
BYLAYER
 70
0
 71
3
 72
13
 73
9
 74
0
 42
0.0000001
 43
0.0000001
 44
0.0000000001
 40
0.0
 40
0.0
 40
0.0
 40
0.0
 40
0.112901454
 40
0.2273080665
 40
0.3445816013
 40
0.4658270975
 40
0.7224524585
 40
1.0
 40
1.0
 40
1.0
 40
1.0
 10
17.7436552683
 20
13.5539304618
 30
0.0
 10
17.7441714358
 20
13.5528782788
 30
0.0
 10
17.7453932676
 20
13.5508442196
 30
0.0
 10
17.7477300509
 20
13.5481159592
 30
0.0
 10
17.7505393701
 20
13.5457407008
 30
0.0
 10
17.7549338759
 20
13.5430423797
 30
0.0
 10
17.7614341836
 20
13.5407674162
 30
0.0
 10
17.7670015685
 20
13.5402174754
 30
0.0
 10
17.7698826466
 20
13.5402174754
 30
0.0
  0
SPLINE
  5
3D8
100
AcDbEntity
  8
0
100
AcDbSpline
 62
7
  6
BYLAYER
 70
0
 71
3
 72
19
 73
15
 74
0
 42
0.0000001
 43
0.0000001
 44
0.0000000001
 40
0.0
 40
0.0
 40
0.0
 40
0.0
 40
0.0563316299
 40
0.1128542877
 40
0.1697542249
 40
0.2272085318
 40
0.3443309936
 40
0.4654198014
 40
0.5277450442
 40
0.5913241545
 40
0.6561997864
 40
0.7223939646
 40
0.858666828
 40
1.0
 40
1.0
 40
1.0
 40
1.0
 10
16.9991409559
 20
13.3735278713
 30
0.0
 10
17.0026934215
 20
13.3662890516
 30
0.0
 10
17.0104267798
 20
13.3520801137
 30
0.0
 10
17.0238111201
 20
13.3317670843
 30
0.0
 10
17.0389401839
 20
13.3125101444
 30
0.0
 10
17.0614938882
 20
13.2881933599
 30
0.0
 10
17.0939545253
 20
13.260746023
 30
0.0
 10
17.1307544805
 20
13.2381589037
 30
0.0
 10
17.1626672576
 20
13.2228900177
 30
0.0
 10
17.1880596372
 20
13.2127827285
 30
0.0
 10
17.2145780143
 20
13.2041708598
 30
0.0
 10
17.251660509
 20
13.1946318323
 30
0.0
 10
17.3003486429
 20
13.1867074605
 30
0.0
 10
17.3401203507
 20
13.184688149
 30
0.0
 10
17.3603513352
 20
13.184688149
 30
0.0
  0
SPLINE
  5
3D9
100
AcDbEntity
  8
0
100
AcDbSpline
 62
7
  6
BYLAYER
 70
0
 71
3
 72
25
 73
21
 74
0
 42
0.0000001
 43
0.0000001
 44
0.0000000001
 40
0.0
 40
0.0
 40
0.0
 40
0.0
 40
0.0251982576
 40
0.0505022963
 40
0.0760146784
 40
0.1018317275
 40
0.1280409427
 40
0.1547189465
 40
0.209682733
 40
0.267125854
 40
0.3271901912
 40
0.3898205375
 40
0.4547916618
 40
0.5217392331
 40
0.5901915106
 40
0.6596003934
 40
0.7293713017
 40
0.798892527
 40
0.8675641161
 40
1.0
 40
1.0
 40
1.0
 40
1.0
 10
17.9882747908
 20
13.8589322582
 30
0.0
 10
17.9922308998
 20
13.8508709387
 30
0.0
 10
17.9994037347
 20
13.8343307994
 30
0.0
 10
18.007820714
 20
13.8085435806
 30
0.0
 10
18.0138692554
 20
13.7818726561
 30
0.0
 10
18.0175213751
 20
13.7544463445
 30
0.0
 10
18.0187617363
 20
13.7263901158
 30
0.0
 10
18.0171821782
 20
13.6879491336
 30
0.0
 10
18.0089792882
 20
13.6388368337
 30
0.0
 10
17.989793317
 20
13.5802299195
 30
0.0
 10
17.9615636514
 20
13.5223673463
 30
0.0
 10
17.9248297156
 20
13.4662876417
 30
0.0
 10
17.8802711681
 20
13.4129822019
 30
0.0
 10
17.8287007886
 20
13.3634018531
 30
0.0
 10
17.77105501
 20
13.3184334982
 30
0.0
 10
17.7083757889
 20
13.2788850951
 30
0.0
 10
17.6418039276
 20
13.2454706294
 30
0.0
 10
17.572518609
 20
13.2187896598
 30
0.0
 10
17.4794496624
 20
13.1931734065
 30
0.0
 10
17.4075466364
 20
13.184688149
 30
0.0
 10
17.3603513352
 20
13.184688149
 30
0.0
  0
SPLINE
  5
3DA
100
AcDbEntity
  8
02___PRT_ALL_AXES
100
AcDbSpline
 62
7
  6
BYLAYER
 70
0
 71
3
 72
18
 73
14
 74
0
 42
0.0000001
 43
0.0000001
 44
0.0000000001
 40
0.0
 40
0.0
 40
0.0
 40
0.0
 40
0.0328410788
 40
0.0676132805
 40
0.1058832841
 40
0.1487046021
 40
0.1966619251
 40
0.2499802493
 40
0.3722493529
 40
0.5132230757
 40
0.6685783853
 40
0.8328560098
 40
1.0
 40
1.0
 40
1.0
 40
1.0
 10
18.2049656956
 20
13.0737157645
 30
0.0
 10
18.2044147808
 20
13.073715873
 30
0.0
 10
18.2032753837
 20
13.0735569658
 30
0.0
 10
18.2016234246
 20
13.0728615828
 30
0.0
 10
18.2000270229
 20
13.0717311291
 30
0.0
 10
18.1984980862
 20
13.0701866225
 30
0.0
 10
18.1970459099
 20
13.0682465481
 30
0.0
 10
18.1951420898
 20
13.0650088257
 30
0.0
 10
18.1931026944
 20
13.0600798
 30
0.0
 10
18.1912525324
 20
13.0532930568
 30
0.0
 10
18.1899808707
 20
13.045659603
 30
0.0
 10
18.1893450699
 20
13.0375097786
 30
0.0
 10
18.1893647885
 20
13.0319428075
 30
0.0
 10
18.1894903444
 20
13.0291417508
 30
0.0
  0
SPLINE
  5
3DB
100
AcDbEntity
  8
02___PRT_ALL_AXES
100
AcDbSpline
 62
7
  6
BYLAYER
 70
0
 71
3
 72
14
 73
10
 74
0
 42
0.0000001
 43
0.0000001
 44
0.0000000001
 40
0.0
 40
0.0
 40
0.0
 40
0.0
 40
0.0858720494
 40
0.177464953
 40
0.2792897935
 40
0.3942336666
 40
0.5237624258
 40
0.6682599514
 40
1.0
 40
1.0
 40
1.0
 40
1.0
 10
18.3296586709
 20
12.8196168804
 30
0.0
 10
18.3290697071
 20
12.8196169002
 30
0.0
 10
18.3278464075
 20
12.8194337879
 30
0.0
 10
18.3260833551
 20
12.8186370275
 30
0.0
 10
18.3243886323
 20
12.8173480457
 30
0.0
 10
18.3227748656
 20
12.8155925401
 30
0.0
 10
18.3212531855
 20
12.8133930125
 30
0.0
 10
18.3192762907
 20
12.8097320496
 30
0.0
 10
18.3181286331
 20
12.8066551283
 30
0.0
 10
18.317456863
 20
12.8044812794
 30
0.0
  0
LINE
  5
3DC
100
AcDbEntity
  8
02___PRT_ALL_AXES
100
AcDbLine
 62
7
  6
BYLAYER
 10
18.347859562
 20
12.4135227248
 11
18.3460802699
 21
12.4132604181
  0
SPLINE
  5
3DD
100
AcDbEntity
  8
02___PRT_ALL_AXES
100
AcDbSpline
 62
7
  6
BYLAYER
 70
0
 71
3
 72
22
 73
18
 74
0
 42
0.0000001
 43
0.0000001
 44
0.0000000001
 40
0.0
 40
0.0
 40
0.0
 40
0.0
 40
0.015507359
 40
0.0315171966
 40
0.0666369403
 40
0.1079660869
 40
0.1565812879
 40
0.212593772
 40
0.2754963904
 40
0.3443725486
 40
0.4180235028
 40
0.5738743468
 40
0.7308179692
 40
0.8057963144
 40
0.8764611402
 40
0.9415368517
 40
1.0
 40
1.0
 40
1.0
 40
1.0
 10
18.2489106389
 20
12.0933179101
 30
0.0
 10
18.2485081679
 20
12.0933179036
 30
0.0
 10
18.2476879987
 20
12.0932352999
 30
0.0
 10
18.2460241554
 20
12.0927301675
 30
0.0
 10
18.2439637193
 20
12.0914182079
 30
0.0
 10
18.2417488487
 20
12.0890149644
 30
0.0
 10
18.2397162324
 20
12.0858001554
 30
0.0
 10
18.2379022669
 20
12.081837909
 30
0.0
 10
18.236342784
 20
12.0772128362
 30
0.0
 10
18.2350740018
 20
12.0720286585
 30
0.0
 10
18.2337873769
 20
12.0643866924
 30
0.0
 10
18.2331035053
 20
12.0543535014
 30
0.0
 10
18.2335859598
 20
12.0442750658
 30
0.0
 10
18.234710654
 20
12.0364976457
 30
0.0
 10
18.2358722128
 20
12.0311479874
 30
0.0
 10
18.2373351661
 20
12.0263188396
 30
0.0
 10
18.2385596087
 20
12.0233470406
 30
0.0
 10
18.2392280557
 20
12.0219848889
 30
0.0
  0
SPLINE
  5
3DE
100
AcDbEntity
  8
02___PRT_ALL_AXES
100
AcDbSpline
 62
7
  6
BYLAYER
 70
0
 71
3
 72
18
 73
14
 74
0
 42
0.0000001
 43
0.0000001
 44
0.0000000001
 40
0.0
 40
0.0
 40
0.0
 40
0.0
 40
0.0328410788
 40
0.0676132805
 40
0.1058832841
 40
0.1487046021
 40
0.1966619251
 40
0.2499802493
 40
0.3722493529
 40
0.5132230757
 40
0.6685783853
 40
0.8328560098
 40
1.0
 40
1.0
 40
1.0
 40
1.0
 10
18.0907710206
 20
12.0465739882
 30
0.0
 10
18.0902201059
 20
12.0465740966
 30
0.0
 10
18.0890807087
 20
12.0464151895
 30
0.0
 10
18.0874287497
 20
12.0457198064
 30
0.0
 10
18.0858323479
 20
12.0445893527
 30
0.0
 10
18.0843034112
 20
12.0430448461
 30
0.0
 10
18.0828512349
 20
12.0411047717
 30
0.0
 10
18.0809474148
 20
12.0378670493
 30
0.0
 10
18.0789080194
 20
12.0329380237
 30
0.0
 10
18.0770578574
 20
12.0261512805
 30
0.0
 10
18.0757861957
 20
12.0185178266
 30
0.0
 10
18.0751503949
 20
12.0103680023
 30
0.0
 10
18.0751701135
 20
12.0048010312
 30
0.0
 10
18.0752956694
 20
12.0019999744
 30
0.0
  0
SPLINE
  5
3DF
100
AcDbEntity
  8
02___PRT_ALL_AXES
100
AcDbSpline
 62
7
  6
BYLAYER
 70
0
 71
3
 72
14
 73
10
 74
0
 42
0.0000001
 43
0.0000001
 44
0.0000000001
 40
0.0
 40
0.0
 40
0.0
 40
0.0
 40
0.0858720494
 40
0.177464953
 40
0.2792897935
 40
0.3942336666
 40
0.5237624258
 40
0.6682599514
 40
1.0
 40
1.0
 40
1.0
 40
1.0
 10
17.9660767222
 20
12.300672936
 30
0.0
 10
17.9654877585
 20
12.3006729558
 30
0.0
 10
17.9642644588
 20
12.3004898435
 30
0.0
 10
17.9625014064
 20
12.2996930831
 30
0.0
 10
17.9608066836
 20
12.2984041013
 30
0.0
 10
17.959192917
 20
12.2966485957
 30
0.0
 10
17.9576712368
 20
12.2944490682
 30
0.0
 10
17.955694342
 20
12.2907881052
 30
0.0
 10
17.9545466845
 20
12.287711184
 30
0.0
 10
17.9538749143
 20
12.285537335
 30
0.0
  0
LINE
  5
3E0
100
AcDbEntity
  8
02___PRT_ALL_AXES
100
AcDbLine
 62
7
  6
BYLAYER
 10
17.9478717141
 20
12.706766937
 11
17.946092422
 21
12.7065046303
  0
SPLINE
  5
3E1
100
AcDbEntity
  8
02___PRT_ALL_AXES
100
AcDbSpline
 62
7
  6
BYLAYER
 70
0
 71
3
 72
22
 73
18
 74
0
 42
0.0000001
 43
0.0000001
 44
0.0000000001
 40
0.0
 40
0.0
 40
0.0
 40
0.0
 40
0.015507359
 40
0.0315171966
 40
0.0666369403
 40
0.1079660869
 40
0.1565812879
 40
0.212593772
 40
0.2754963904
 40
0.3443725486
 40
0.4180235028
 40
0.5738743468
 40
0.7308179692
 40
0.8057963144
 40
0.8764611402
 40
0.9415368517
 40
1.0
 40
1.0
 40
1.0
 40
1.0
 10
18.0468243483
 20
13.0269717963
 30
0.0
 10
18.0464218773
 20
13.0269717898
 30
0.0
 10
18.0456017082
 20
13.0268891861
 30
0.0
 10
18.0439378648
 20
13.0263840537
 30
0.0
 10
18.0418774287
 20
13.0250720942
 30
0.0
 10
18.0396625581
 20
13.0226688507
 30
0.0
 10
18.0376299418
 20
13.0194540416
 30
0.0
 10
18.0358159763
 20
13.0154917953
 30
0.0
 10
18.0342564934
 20
13.0108667224
 30
0.0
 10
18.0329877112
 20
13.0056825448
 30
0.0
 10
18.0317010863
 20
12.9980405787
 30
0.0
 10
18.0310172147
 20
12.9880073877
 30
0.0
 10
18.0314996692
 20
12.9779289521
 30
0.0
 10
18.0326243634
 20
12.9701515319
 30
0.0
 10
18.0337859222
 20
12.9648018737
 30
0.0
 10
18.0352488755
 20
12.9599727258
 30
0.0
 10
18.0364733181
 20
12.9570009269
 30
0.0
 10
18.0371417651
 20
12.9556387752
 30
0.0
  0
SPLINE
  5
3E2
100
AcDbEntity
  8
0
100
AcDbSpline
 62
7
  6
BYLAYER
 70
0
 71
3
 72
34
 73
30
 74
0
 42
0.0000001
 43
0.0000001
 44
0.0000000001
 40
0.0
 40
0.0
 40
0.0
 40
0.0
 40
0.0154280234
 40
0.0312694262
 40
0.0478991825
 40
0.0656282167
 40
0.0846944065
 40
0.1052659223
 40
0.1274504262
 40
0.1513054683
 40
0.1768478382
 40
0.2040612153
 40
0.2329021824
 40
0.2633049033
 40
0.2951847885
 40
0.3284414187
 40
0.3629609333
 40
0.3986180482
 40
0.4727883003
 40
0.5497934338
 40
0.5889728094
 40
0.6283856026
 40
0.7072485291
 40
0.7850802462
 40
0.860601165
 40
0.897117651
 40
0.9326100657
 40
0.96694592
 40
1.0
 40
1.0
 40
1.0
 40
1.0
 10
18.147867991
 20
13.1905993883
 30
0.0
 10
18.1539839799
 20
13.1905993496
 30
0.0
 10
18.1664072406
 20
13.1894668319
 30
0.0
 10
18.1848026679
 20
13.1844173657
 30
0.0
 10
18.2029562513
 20
13.1760708364
 30
0.0
 10
18.2207730632
 20
13.1645030737
 30
0.0
 10
18.2381831733
 20
13.1497927009
 30
0.0
 10
18.2551177668
 20
13.1320210158
 30
0.0
 10
18.2715080744
 20
13.1112763139
 30
0.0
 10
18.2872835087
 20
13.087657687
 30
0.0
 10
18.302373047
 20
13.0612770878
 30
0.0
 10
18.3167065092
 20
13.0322600086
 30
0.0
 10
18.3302158054
 20
13.0007453385
 30
0.0
 10
18.3428358657
 20
12.9668848021
 30
0.0
 10
18.3545054055
 20
12.9308421535
 30
0.0
 10
18.3651673141
 20
12.8927923974
 30
0.0
 10
18.3747697401
 20
12.8529204177
 30
0.0
 10
18.3862462462
 20
12.7968513707
 30
0.0
 10
18.3975297484
 20
12.7235997826
 30
0.0
 10
18.4046276448
 20
12.648431381
 30
0.0
 10
18.4078745528
 20
12.5868281316
 30
0.0
 10
18.4094456335
 20
12.5244227829
 30
0.0
 10
18.4082324549
 20
12.4466490008
 30
0.0
 10
18.4017605864
 20
12.3547769672
 30
0.0
 10
18.3921905447
 20
12.2800699102
 30
0.0
 10
18.3820466474
 20
12.2224638391
 30
0.0
 10
18.3733801176
 20
12.1811984449
 30
0.0
 10
18.3636138306
 20
12.1415919291
 30
0.0
 10
18.3562529913
 20
12.1159028684
 30
0.0
 10
18.3523842694
 20
12.1033836797
 30
0.0
  0
SPLINE
  5
3E3
100
AcDbEntity
  8
0
100
AcDbSpline
 62
7
  6
BYLAYER
 70
0
 71
3
 72
22
 73
18
 74
0
 42
0.0000001
 43
0.0000001
 44
0.0000000001
 40
0.0
 40
0.0
 40
0.0
 40
0.0
 40
0.0426296791
 40
0.0860021304
 40
0.1308142989
 40
0.1776816988
 40
0.2271191224
 40
0.2795360905
 40
0.3352419075
 40
0.3944562869
 40
0.457321916
 40
0.5239158302
 40
0.5942589296
 40
0.6683258371
 40
0.7460506619
 40
0.8273314609
 40
1.0
 40
1.0
 40
1.0
 40
1.0
 10
18.1478671356
 20
11.8496904287
 30
0.0
 10
18.1527726988
 20
11.8496903977
 30
0.0
 10
18.1626837163
 20
11.8504123409
 30
0.0
 10
18.1774336992
 20
11.8536440147
 30
0.0
 10
18.1920678617
 20
11.859006621
 30
0.0
 10
18.2065328531
 20
11.8664702679
 30
0.0
 10
18.2207866739
 20
11.8760008466
 30
0.0
 10
18.234789149
 20
11.8875615831
 30
0.0
 10
18.2485019238
 20
11.9011125079
 30
0.0
 10
18.2618867784
 20
11.9166097091
 30
0.0
 10
18.2749053156
 20
11.9340046661
 30
0.0
 10
18.2875191107
 20
11.9532435022
 30
0.0
 10
18.2996904456
 20
11.9742666243
 30
0.0
 10
18.311381979
 20
11.9970087606
 30
0.0
 10
18.3225579247
 20
12.0213994646
 30
0.0
 10
18.3370158755
 20
12.0567306018
 30
0.0
 10
18.34651781
 20
12.0843998103
 30
0.0
 10
18.3523842694
 20
12.1033836797
 30
0.0
  0
SPLINE
  5
3E4
100
AcDbEntity
  8
0
100
AcDbSpline
 62
7
  6
BYLAYER
 70
0
 71
3
 72
10
 73
6
 74
0
 42
0.0000001
 43
0.0000001
 44
0.0000000001
 40
0.0
 40
0.0
 40
0.0
 40
0.0
 40
0.2394088225
 40
0.4839675662
 40
1.0
 40
1.0
 40
1.0
 40
1.0
 10
17.3704291878
 20
12.9606869161
 30
0.0
 10
17.3707339411
 20
12.9599884584
 30
0.0
 10
17.3712110934
 20
12.958511136
 30
0.0
 10
17.3715983382
 20
12.955337311
 30
0.0
 10
17.3712161948
 20
12.9528855158
 30
0.0
 10
17.3707312353
 20
12.9513161864
 30
0.0
  0
SPLINE
  5
3E5
100
AcDbEntity
  8
0
100
AcDbSpline
 62
7
  6
BYLAYER
 70
0
 71
3
 72
23
 73
19
 74
0
 42
0.0000001
 43
0.0000001
 44
0.0000000001
 40
0.0
 40
0.0
 40
0.0
 40
0.0
 40
0.0553604895
 40
0.1117720114
 40
0.1701693385
 40
0.2312119482
 40
0.295137629
 40
0.3617204582
 40
0.4303233815
 40
0.5000121184
 40
0.5696997913
 40
0.6382997199
 40
0.7048788699
 40
0.7688001621
 40
0.8298373718
 40
0.8882313181
 40
0.9446406074
 40
1.0
 40
1.0
 40
1.0
 40
1.0
 10
17.4030965854
 20
12.9723947281
 30
0.0
 10
17.4018192807
 20
12.9749965176
 30
0.0
 10
17.3985150481
 20
12.9799248449
 30
0.0
 10
17.3917444751
 20
12.9858520492
 30
0.0
 10
17.3835108909
 20
12.9901455957
 30
0.0
 10
17.3741944151
 20
12.9927107153
 30
0.0
 10
17.3641472415
 20
12.9935332162
 30
0.0
 10
17.3537167517
 20
12.9926375843
 30
0.0
 10
17.3432573635
 20
12.9900866357
 30
0.0
 10
17.3331300242
 20
12.9859851417
 30
0.0
 10
17.3236905072
 20
12.9804826725
 30
0.0
 10
17.3152745601
 20
12.9737693064
 30
0.0
 10
17.3081860238
 20
12.9660661842
 30
0.0
 10
17.3026912793
 20
12.9576154056
 30
0.0
 10
17.2990219147
 20
12.9486767756
 30
0.0
 10
17.2973825888
 20
12.9395373454
 30
0.0
 10
17.2979305584
 20
12.9305560095
 30
0.0
 10
17.2998080032
 20
12.9249274854
 30
0.0
 10
17.3010853357
 20
12.9223257735
 30
0.0
  0
SPLINE
  5
3E6
100
AcDbEntity
  8
0
100
AcDbSpline
 62
7
  6
BYLAYER
 70
0
 71
3
 72
11
 73
7
 74
0
 42
0.0000001
 43
0.0000001
 44
0.0000000001
 40
0.0
 40
0.0
 40
0.0
 40
0.0
 40
0.2352500243
 40
0.4797028115
 40
0.7346374722
 40
1.0
 40
1.0
 40
1.0
 40
1.0
 10
17.7540335417
 20
12.8155565064
 30
0.0
 10
17.7539240975
 20
12.8081688717
 30
0.0
 10
17.7526079359
 20
12.7930985622
 30
0.0
 10
17.7472771376
 20
12.770572557
 30
0.0
 10
17.7385696153
 20
12.7481159634
 30
0.0
 10
17.7308308546
 20
12.7336783907
 30
0.0
 10
17.726526005
 20
12.7265420849
 30
0.0
  0
SPLINE
  5
3E7
100
AcDbEntity
  8
0
100
AcDbSpline
 62
7
  6
BYLAYER
 70
0
 71
3
 72
31
 73
27
 74
0
 42
0.0000001
 43
0.0000001
 44
0.0000000001
 40
0.0
 40
0.0
 40
0.0
 40
0.0
 40
0.0155006603
 40
0.0315033918
 40
0.04845458
 40
0.0667108843
 40
0.0865311865
 40
0.1080853564
 40
0.1314690545
 40
0.1567184171
 40
0.1838223464
 40
0.2127319716
 40
0.2433678205
 40
0.2756252511
 40
0.3444715195
 40
0.4180904414
 40
0.4950891244
 40
0.5739482558
 40
0.6530824723
 40
0.7308966927
 40
0.8058424842
 40
0.8764761864
 40
0.9097770415
 40
0.9415398993
 40
0.9716479459
 40
1.0
 40
1.0
 40
1.0
 40
1.0
 10
18.1478681981
 20
12.2369630921
 30
0.0
 10
18.1507175189
 20
12.2369631552
 30
0.0
 10
18.1565237881
 20
12.2375483641
 30
0.0
 10
18.1650931093
 20
12.240150477
 30
0.0
 10
18.1735207744
 20
12.2444402595
 30
0.0
 10
18.1817566234
 20
12.250370115
 30
0.0
 10
18.1897644661
 20
12.257893109
 30
0.0
 10
18.1975072176
 20
12.2669611357
 30
0.0
 10
18.2049468762
 20
12.2775211239
 30
0.0
 10
18.2120441824
 20
12.2895126334
 30
0.0
 10
18.2187598592
 20
12.302866929
 30
0.0
 10
18.2250554315
 20
12.3175068321
 30
0.0
 10
18.2308945977
 20
12.3333471953
 30
0.0
 10
18.2381828056
 20
12.3564485645
 30
0.0
 10
18.2458239333
 20
12.3876828699
 30
0.0
 10
18.2525324646
 20
12.427493242
 30
0.0
 10
18.256805129
 20
12.4694872005
 30
0.0
 10
18.2585388112
 20
12.5126744805
 30
0.0
 10
18.257691079
 20
12.5560379413
 30
0.0
 10
18.254282671
 20
12.5985557769
 30
0.0
 10
18.248396098
 20
12.6392246245
 30
0.0
 10
18.2414147404
 20
12.6713924707
 30
0.0
 10
18.2346265231
 20
12.6954017927
 30
0.0
 10
18.2291215496
 20
12.7120144805
 30
0.0
 10
18.2231363503
 20
12.7274888561
 30
0.0
 10
18.2187123016
 20
12.737290179
 30
0.0
 10
18.2164163449
 20
12.741968847
 30
0.0
  0
LINE
  5
3E8
100
AcDbEntity
  8
0
100
AcDbLine
 62
7
  6
BYLAYER
 10
17.726526005
 20
12.7265420849
 11
17.7576202466
 21
12.7165870802
  0
SPLINE
  5
3E9
100
AcDbEntity
  8
0
100
AcDbSpline
 62
7
  6
BYLAYER
 70
0
 71
3
 72
25
 73
21
 74
0
 42
0.0000001
 43
0.0000001
 44
0.0000000001
 40
0.0
 40
0.0
 40
0.0
 40
0.0
 40
0.0252904164
 40
0.0506176434
 40
0.0760916777
 40
0.1018178537
 40
0.1543547721
 40
0.2089304013
 40
0.2371474836
 40
0.2660166363
 40
0.3257349605
 40
0.3881123669
 40
0.4529465555
 40
0.5198799967
 40
0.5884345672
 40
0.6580453969
 40
0.7280939651
 40
0.7979400595
 40
0.8669534463
 40
1.0
 40
1.0
 40
1.0
 40
1.0
 10
17.2115521099
 20
13.5727961492
 30
0.0
 10
17.2092957301
 20
13.5767336949
 30
0.0
 10
17.205154341
 20
13.5848362511
 30
0.0
 10
17.2001276277
 20
13.5975527586
 30
0.0
 10
17.1963123954
 20
13.6107668715
 30
0.0
 10
17.1928408998
 20
13.6290790129
 30
0.0
 10
17.1916730192
 20
13.6530247948
 30
0.0
 10
17.1946727182
 20
13.677237681
 30
0.0
 10
17.1994403157
 20
13.6967156766
 30
0.0
 10
17.2059452065
 20
13.7166593477
 30
0.0
 10
17.2171343626
 20
13.7414337431
 30
0.0
 10
17.2348635967
 20
13.7700091286
 30
0.0
 10
17.2567060154
 20
13.7972513344
 30
0.0
 10
17.2822437559
 20
13.8226501761
 30
0.0
 10
17.3109937055
 20
13.8457335484
 30
0.0
 10
17.342413573
 20
13.8660694858
 30
0.0
 10
17.3759074038
 20
13.8832751703
 30
0.0
 10
17.4108566079
 20
13.8970290602
 30
0.0
 10
17.457872944
 20
13.9102434006
 30
0.0
 10
17.49425486
 20
13.9146296721
 30
0.0
 10
17.5181293434
 20
13.9146296721
 30
0.0
  0
SPLINE
  5
3EA
100
AcDbEntity
  8
02___PRT_ALL_AXES
100
AcDbSpline
 62
7
  6
BYLAYER
 70
0
 71
3
 72
14
 73
10
 74
0
 42
0.0000001
 43
0.0000001
 44
0.0000000001
 40
0.0
 40
0.0
 40
0.0
 40
0.0
 40
0.1030873722
 40
0.2104449495
 40
0.3251273199
 40
0.4484036238
 40
0.579823456
 40
0.7175916595
 40
1.0
 40
1.0
 40
1.0
 40
1.0
 10
17.8954780883
 20
13.8480596591
 30
0.0
 10
17.8945432671
 20
13.8499652466
 30
0.0
 10
17.8920119301
 20
13.8535787798
 30
0.0
 10
17.8866705708
 20
13.8577510751
 30
0.0
 10
17.8800613362
 20
13.8605591054
 30
0.0
 10
17.8725204724
 20
13.8619041266
 30
0.0
 10
17.8643928823
 20
13.8617515817
 30
0.0
 10
17.8532095011
 20
13.8595686972
 30
0.0
 10
17.8451861167
 20
13.8558434796
 30
0.0
 10
17.8403631873
 20
13.8525953998
 30
0.0
  0
SPLINE
  5
3EB
100
AcDbEntity
  8
02___PRT_ALL_AXES
100
AcDbSpline
 62
7
  6
BYLAYER
 70
0
 71
3
 72
11
 73
7
 74
0
 42
0.0000001
 43
0.0000001
 44
0.0000000001
 40
0.0
 40
0.0
 40
0.0
 40
0.0
 40
0.2644202521
 40
0.5170856368
 40
0.7609150129
 40
1.0
 40
1.0
 40
1.0
 40
1.0
 10
17.1664919249
 20
13.3884883722
 30
0.0
 10
17.1660221555
 20
13.3869681978
 30
0.0
 10
17.1653340394
 20
13.3839162527
 30
0.0
 10
17.1651268973
 20
13.3793167174
 30
0.0
 10
17.1657806689
 20
13.3749106297
 30
0.0
 10
17.1667907005
 20
13.3721598835
 30
0.0
 10
17.1674243291
 20
13.37086828
 30
0.0
  0
SPLINE
  5
3EC
100
AcDbEntity
  8
02___PRT_ALL_AXES
100
AcDbSpline
 62
7
  6
BYLAYER
 70
0
 71
3
 72
19
 73
15
 74
0
 42
0.0000001
 43
0.0000001
 44
0.0000000001
 40
0.0
 40
0.0
 40
0.0
 40
0.0
 40
0.0507459952
 40
0.1026294472
 40
0.1566080379
 40
0.2133381529
 40
0.335623381
 40
0.4012047648
 40
0.4690057161
 40
0.6081751752
 40
0.7469361473
 40
0.8142544212
 40
0.8792081901
 40
1.0
 40
1.0
 40
1.0
 40
1.0
 10
17.7367981813
 20
14.0311218407
 30
0.0
 10
17.736123177
 20
14.0324977856
 30
0.0
 10
17.7344416605
 20
14.0351368499
 30
0.0
 10
17.7310758758
 20
14.0385070309
 30
0.0
 10
17.7269499938
 20
14.0412281737
 30
0.0
 10
17.7204346824
 20
14.0439706535
 30
0.0
 10
17.7129925785
 20
14.0450583711
 30
0.0
 10
17.705270302
 20
14.0446483067
 30
0.0
 10
17.6971495176
 20
14.0431815203
 30
0.0
 10
17.6872768927
 20
14.0394934642
 30
0.0
 10
17.6784870377
 20
14.0337033151
 30
0.0
 10
17.6725588452
 20
14.0280271393
 30
0.0
 10
17.6677497884
 20
14.0220741989
 30
0.0
 10
17.6651227907
 20
14.0169871961
 30
0.0
 10
17.6640457059
 20
14.0135017486
 30
0.0
  0
SPLINE
  5
3ED
100
AcDbEntity
  8
02___PRT_ALL_AXES
100
AcDbSpline
 62
7
  6
BYLAYER
 70
0
 71
3
 72
9
 73
5
 74
0
 42
0.0000001
 43
0.0000001
 44
0.0000000001
 40
0.0
 40
0.0
 40
0.0
 40
0.0
 40
0.249055861
 40
1.0
 40
1.0
 40
1.0
 40
1.0
 10
17.432388177
 20
14.031121858
 30
0.0
 10
17.4321887731
 20
14.0315282956
 30
0.0
 10
17.4313351611
 20
14.0331337931
 30
0.0
 10
17.4302703906
 20
14.0346261226
 30
0.0
 10
17.4293763147
 20
14.0356575794
 30
0.0
  0
SPLINE
  5
3EE
100
AcDbEntity
  8
0
100
AcDbSpline
 62
7
  6
BYLAYER
 70
0
 71
3
 72
19
 73
15
 74
0
 42
0.0000001
 43
0.0000001
 44
0.0000000001
 40
0.0
 40
0.0
 40
0.0
 40
0.0
 40
0.1211520341
 40
0.2536350789
 40
0.3229056121
 40
0.3930762646
 40
0.5324307284
 40
0.6653384608
 40
0.7279321039
 40
0.7874144101
 40
0.8438136048
 40
0.8975060876
 40
0.9492249374
 40
1.0
 40
1.0
 40
1.0
 40
1.0
 10
17.3295681822
 20
12.9513161864
 30
0.0
 10
17.3301778529
 20
12.9532890817
 30
0.0
 10
17.3322082119
 20
12.957199111
 30
0.0
 10
17.3360276585
 20
12.9612424585
 30
0.0
 10
17.3397620153
 20
12.9640028379
 30
0.0
 10
17.3438960799
 20
12.9663651085
 30
0.0
 10
17.3494339729
 20
12.9683728777
 30
0.0
 10
17.3551764203
 20
12.969001171
 30
0.0
 10
17.3595139111
 20
12.9685571432
 30
0.0
 10
17.3624702174
 20
12.9677849746
 30
0.0
 10
17.3651160191
 20
12.9665835228
 30
0.0
 10
17.367381394
 20
12.9649780985
 30
0.0
 10
17.3692010779
 20
12.9630080021
 30
0.0
 10
17.3700830931
 20
12.9614801232
 30
0.0
 10
17.3704291878
 20
12.9606869161
 30
0.0
  0
SPLINE
  5
3EF
100
AcDbEntity
  8
02___PRT_ALL_AXES
100
AcDbSpline
 62
7
  6
BYLAYER
 70
0
 71
3
 72
13
 73
9
 74
0
 42
0.0000001
 43
0.0000001
 44
0.0000000001
 40
0.0
 40
0.0
 40
0.0
 40
0.0
 40
0.112901454
 40
0.2273080665
 40
0.3445816013
 40
0.4658270975
 40
0.7224524585
 40
1.0
 40
1.0
 40
1.0
 40
1.0
 10
17.1605672421
 20
13.848059659
 30
0.0
 10
17.1600510745
 20
13.849111842
 30
0.0
 10
17.1588292427
 20
13.8511459012
 30
0.0
 10
17.1564924594
 20
13.8538741616
 30
0.0
 10
17.1536831402
 20
13.85624942
 30
0.0
 10
17.1492886344
 20
13.8589477411
 30
0.0
 10
17.1427883268
 20
13.8612227045
 30
0.0
 10
17.1372209419
 20
13.8617726454
 30
0.0
 10
17.1343398638
 20
13.8617726454
 30
0.0
  0
SPLINE
  5
3F0
100
AcDbEntity
  8
0
100
AcDbSpline
 62
7
  6
BYLAYER
 70
0
 71
3
 72
9
 73
5
 74
0
 42
0.0000001
 43
0.0000001
 44
0.0000000001
 40
0.0
 40
0.0
 40
0.0
 40
0.0
 40
0.5093368841
 40
1.0
 40
1.0
 40
1.0
 40
1.0
 10
17.3054193439
 20
12.915821419
 30
0.0
 10
17.304703548
 20
12.9165243537
 30
0.0
 10
17.3034006112
 20
12.918014514
 30
0.0
 10
17.3023704056
 20
12.9197069375
 30
0.0
 10
17.3019446439
 20
12.9205745547
 30
0.0
  0
SPLINE
  5
3F1
100
AcDbEntity
  8
02___PRT_ALL_AXES
100
AcDbSpline
 62
7
  6
BYLAYER
 70
0
 71
3
 72
14
 73
10
 74
0
 42
0.0000001
 43
0.0000001
 44
0.0000000001
 40
0.0
 40
0.0
 40
0.0
 40
0.0
 40
0.1030873722
 40
0.2104449495
 40
0.3251273199
 40
0.4484036238
 40
0.579823456
 40
0.7175916595
 40
1.0
 40
1.0
 40
1.0
 40
1.0
 10
17.0805644851
 20
13.5891706419
 30
0.0
 10
17.079629664
 20
13.5910762294
 30
0.0
 10
17.0770983269
 20
13.5946897626
 30
0.0
 10
17.0717569677
 20
13.5988620579
 30
0.0
 10
17.0651477331
 20
13.6016700882
 30
0.0
 10
17.0576068692
 20
13.6030151094
 30
0.0
 10
17.0494792791
 20
13.6028625645
 30
0.0
 10
17.038295898
 20
13.60067968
 30
0.0
 10
17.0302725135
 20
13.5969544624
 30
0.0
 10
17.0254495842
 20
13.5937063826
 30
0.0
  0
SPLINE
  5
3F2
100
AcDbEntity
  8
0
100
AcDbSpline
 62
7
  6
BYLAYER
 70
0
 71
3
 72
10
 73
6
 74
0
 42
0.0000001
 43
0.0000001
 44
0.0000000001
 40
0.0
 40
0.0
 40
0.0
 40
0.0
 40
0.4924478515
 40
0.7486360426
 40
1.0
 40
1.0
 40
1.0
 40
1.0
 10
17.3374338381
 20
12.9088954666
 30
0.0
 10
17.3444405734
 20
12.908895464
 30
0.0
 10
17.3551379239
 20
12.9092917928
 30
0.0
 10
17.3691295564
 20
12.912036233
 30
0.0
 10
17.3760014717
 20
12.9143693253
 30
0.0
 10
17.3792698981
 20
12.9158214805
 30
0.0
  0
SPLINE
  5
3F3
100
AcDbEntity
  8
0
100
AcDbSpline
 62
7
  6
BYLAYER
 70
0
 71
3
 72
12
 73
8
 74
0
 42
0.0000001
 43
0.0000001
 44
0.0000000001
 40
0.0
 40
0.0
 40
0.0
 40
0.0
 40
0.1972557284
 40
0.310952607
 40
0.4343951588
 40
0.7057873893
 40
1.0
 40
1.0
 40
1.0
 40
1.0
 10
17.3054192907
 20
12.9158214799
 30
0.0
 10
17.3069866517
 20
12.9142822707
 30
0.0
 10
17.3100768074
 20
12.9124941988
 30
0.0
 10
17.3146568216
 20
12.9109524826
 30
0.0
 10
17.3201990573
 20
12.909724691
 30
0.0
 10
17.327857963
 20
12.9090009379
 30
0.0
 10
17.3341572966
 20
12.9088954666
 30
0.0
 10
17.3374338381
 20
12.9088954654
 30
0.0
  0
SPLINE
  5
3F4
100
AcDbEntity
  8
02___PRT_ALL_AXES
100
AcDbSpline
 62
7
  6
BYLAYER
 70
0
 71
3
 72
19
 73
15
 74
0
 42
0.0000001
 43
0.0000001
 44
0.0000000001
 40
0.0
 40
0.0
 40
0.0
 40
0.0
 40
0.0507459952
 40
0.1026294472
 40
0.1566080379
 40
0.2133381529
 40
0.335623381
 40
0.4012047648
 40
0.4690057161
 40
0.6081751752
 40
0.7469361473
 40
0.8142544212
 40
0.8792081901
 40
1.0
 40
1.0
 40
1.0
 40
1.0
 10
17.2392444003
 20
13.4061084643
 30
0.0
 10
17.238569396
 20
13.4074844091
 30
0.0
 10
17.2368878796
 20
13.4101234734
 30
0.0
 10
17.2335220948
 20
13.4134936544
 30
0.0
 10
17.2293962128
 20
13.4162147972
 30
0.0
 10
17.2228809014
 20
13.418957277
 30
0.0
 10
17.2154387975
 20
13.4200449946
 30
0.0
 10
17.207716521
 20
13.4196349302
 30
0.0
 10
17.1995957366
 20
13.4181681438
 30
0.0
 10
17.1897231117
 20
13.4144800877
 30
0.0
 10
17.1809332568
 20
13.4086899386
 30
0.0
 10
17.1750050642
 20
13.4030137628
 30
0.0
 10
17.1701960075
 20
13.3970608224
 30
0.0
 10
17.1675690097
 20
13.3919738196
 30
0.0
 10
17.1664919249
 20
13.3884883722
 30
0.0
  0
SPLINE
  5
3F5
100
AcDbEntity
  8
02___PRT_ALL_AXES
100
AcDbSpline
 62
7
  6
BYLAYER
 70
0
 71
3
 72
21
 73
17
 74
0
 42
0.0000001
 43
0.0000001
 44
0.0000000001
 40
0.0
 40
0.0
 40
0.0
 40
0.0
 40
0.0533394179
 40
0.1094591246
 40
0.1690662237
 40
0.2323153903
 40
0.3677248548
 40
0.4386062676
 40
0.5100561976
 40
0.5809159487
 40
0.6500790287
 40
0.7793548491
 40
0.8388927127
 40
0.8949536638
 40
0.948249955
 40
1.0
 40
1.0
 40
1.0
 40
1.0
 10
17.4293763147
 20
14.0356575794
 30
0.0
 10
17.428174578
 20
14.0370439713
 30
0.0
 10
17.4253365551
 20
14.0395831993
 30
0.0
 10
17.4201970034
 20
14.0423937722
 30
0.0
 10
17.4142742038
 20
14.0442105705
 30
0.0
 10
17.4054163172
 20
14.0452639087
 30
0.0
 10
17.3960554438
 20
14.0440947536
 30
0.0
 10
17.3869853476
 20
14.0410408974
 30
0.0
 10
17.3803850065
 20
14.0377927078
 30
0.0
 10
17.3743219703
 20
14.0337294367
 30
0.0
 10
17.367390939
 20
14.0275605974
 30
0.0
 10
17.3620454487
 20
14.0202445227
 30
0.0
 10
17.3590837046
 20
14.0123102474
 30
0.0
 10
17.3581874094
 20
14.0065227516
 30
0.0
 10
17.3586095878
 20
14.0009460628
 30
0.0
 10
17.3597839888
 20
13.9974797326
 30
0.0
 10
17.3605680353
 20
13.9958816392
 30
0.0
  0
SPLINE
  5
3F6
100
AcDbEntity
  8
02___PRT_ALL_AXES
100
AcDbSpline
 62
7
  6
BYLAYER
 70
0
 71
3
 72
17
 73
13
 74
0
 42
0.0000001
 43
0.0000001
 44
0.0000000001
 40
0.0
 40
0.0
 40
0.0
 40
0.0
 40
0.1325925142
 40
0.2707735877
 40
0.4099481224
 40
0.5453247206
 40
0.672858506
 40
0.79022537
 40
0.8452543801
 40
0.89815623
 40
0.9494936863
 40
1.0
 40
1.0
 40
1.0
 40
1.0
 10
17.7892479525
 20
13.6028836282
 30
0.0
 10
17.7858212957
 20
13.6028836282
 30
0.0
 10
17.7788073091
 20
13.6020560877
 30
0.0
 10
17.7686915392
 20
13.5986998378
 30
0.0
 10
17.7593392451
 20
13.5934313303
 30
0.0
 10
17.7514045676
 20
13.586608642
 30
0.0
 10
17.7454391603
 20
13.578695225
 30
0.0
 10
17.7424089188
 20
13.5714409707
 30
0.0
 10
17.7414454285
 20
13.5656761416
 30
0.0
 10
17.7414403119
 20
13.5615394629
 30
0.0
 10
17.742142609
 20
13.5575811516
 30
0.0
 10
17.7430803967
 20
13.55510231
 30
0.0
 10
17.7436552683
 20
13.5539304618
 30
0.0
  0
SPLINE
  5
3F7
100
AcDbEntity
  8
02___PRT_ALL_AXES
100
AcDbSpline
 62
7
  6
BYLAYER
 70
0
 71
3
 72
12
 73
8
 74
0
 42
0.0000001
 43
0.0000001
 44
0.0000000001
 40
0.0
 40
0.0
 40
0.0
 40
0.0
 40
0.3156248899
 40
0.5814722806
 40
0.8037155963
 40
0.9036880776
 40
1.0
 40
1.0
 40
1.0
 40
1.0
 10
18.056507071
 20
13.018304928
 30
0.0
 10
18.0558756325
 20
13.0195916644
 30
0.0
 10
18.0545629884
 20
13.0218972835
 30
0.0
 10
18.0522041086
 20
13.0247136802
 30
0.0
 10
18.0499716215
 20
13.0262728656
 30
0.0
 10
18.048155845
 20
13.0268737377
 30
0.0
 10
18.0472617212
 20
13.0269718035
 30
0.0
 10
18.0468243483
 20
13.0269717963
 30
0.0
  0
SPLINE
  5
3F8
100
AcDbEntity
  8
02___PRT_ALL_AXES
100
AcDbSpline
 62
7
  6
BYLAYER
 70
0
 71
3
 72
9
 73
5
 74
0
 42
0.0000001
 43
0.0000001
 44
0.0000000001
 40
0.0
 40
0.0
 40
0.0
 40
0.0
 40
0.249055861
 40
1.0
 40
1.0
 40
1.0
 40
1.0
 10
17.5436544751
 20
13.4061084815
 30
0.0
 10
17.5434550712
 20
13.4065149192
 30
0.0
 10
17.5426014592
 20
13.4081204166
 30
0.0
 10
17.5415366886
 20
13.4096127461
 30
0.0
 10
17.5406426127
 20
13.4106442029
 30
0.0
  0
SPLINE
  5
3F9
100
AcDbEntity
  8
02___PRT_ALL_AXES
100
AcDbSpline
 62
7
  6
BYLAYER
 70
0
 71
3
 72
13
 73
9
 74
0
 42
0.0000001
 43
0.0000001
 44
0.0000000001
 40
0.0
 40
0.0
 40
0.0
 40
0.0
 40
0.2850276125
 40
0.5476028922
 40
0.6688652013
 40
0.7835806064
 40
0.8931954405
 40
1.0
 40
1.0
 40
1.0
 40
1.0
 10
17.0254495842
 20
13.5937063826
 30
0.0
 10
17.0217614189
 20
13.591222528
 30
0.0
 10
17.0152226492
 20
13.5855606778
 30
0.0
 10
17.0094209754
 20
13.5766647041
 30
0.0
 10
17.0070102129
 20
13.5692263012
 30
0.0
 10
17.0063709101
 20
13.563833342
 30
0.0
 10
17.0068875374
 20
13.5586507891
 30
0.0
 10
17.0080105795
 20
13.5554263642
 30
0.0
 10
17.0087444221
 20
13.5539304617
 30
0.0
  0
SPLINE
  5
3FA
100
AcDbEntity
  8
02___PRT_ALL_AXES
100
AcDbSpline
 62
7
  6
BYLAYER
 70
0
 71
3
 72
13
 73
9
 74
0
 42
0.0000001
 43
0.0000001
 44
0.0000000001
 40
0.0
 40
0.0
 40
0.0
 40
0.0
 40
0.112901454
 40
0.2273080665
 40
0.3445816013
 40
0.4658270975
 40
0.7224524585
 40
1.0
 40
1.0
 40
1.0
 40
1.0
 10
17.8154753308
 20
13.5891706418
 30
0.0
 10
17.8149591633
 20
13.5902228248
 30
0.0
 10
17.8137373315
 20
13.592256884
 30
0.0
 10
17.8114005481
 20
13.5949851444
 30
0.0
 10
17.8085912289
 20
13.5973604028
 30
0.0
 10
17.8041967232
 20
13.6000587239
 30
0.0
 10
17.7976964155
 20
13.6023336873
 30
0.0
 10
17.7921290306
 20
13.6028836282
 30
0.0
 10
17.7892479525
 20
13.6028836282
 30
0.0
  0
SPLINE
  5
3FB
100
AcDbEntity
  8
02___PRT_ALL_AXES
100
AcDbSpline
 62
7
  6
BYLAYER
 70
0
 71
3
 72
11
 73
7
 74
0
 42
0.0000001
 43
0.0000001
 44
0.0000000001
 40
0.0
 40
0.0
 40
0.0
 40
0.0
 40
0.2644202521
 40
0.5170856368
 40
0.7609150129
 40
1.0
 40
1.0
 40
1.0
 40
1.0
 10
17.6640457059
 20
14.0135017486
 30
0.0
 10
17.6635759365
 20
14.0119815742
 30
0.0
 10
17.6628878203
 20
14.0089296292
 30
0.0
 10
17.6626806782
 20
14.0043300939
 30
0.0
 10
17.6633344499
 20
13.9999240062
 30
0.0
 10
17.6643444815
 20
13.99717326
 30
0.0
 10
17.66497811
 20
13.9958816565
 30
0.0
  0
SPLINE
  5
3FC
100
AcDbEntity
  8
0
100
AcDbSpline
 62
7
  6
BYLAYER
 70
0
 71
3
 72
19
 73
15
 74
0
 42
0.0000001
 43
0.0000001
 44
0.0000000001
 40
0.0
 40
0.0
 40
0.0
 40
0.0
 40
0.0563316299
 40
0.1128542877
 40
0.1697542249
 40
0.2272085318
 40
0.3443309936
 40
0.4654198014
 40
0.5277450442
 40
0.5913241545
 40
0.6561997864
 40
0.7223939646
 40
0.858666828
 40
1.0
 40
1.0
 40
1.0
 40
1.0
 10
16.9575443378
 20
13.4582928669
 30
0.0
 10
16.9610968033
 20
13.4510540472
 30
0.0
 10
16.9688301617
 20
13.4368451094
 30
0.0
 10
16.9822145019
 20
13.41653208
 30
0.0
 10
16.9973435657
 20
13.39727514
 30
0.0
 10
17.01989727
 20
13.3729583556
 30
0.0
 10
17.0523579071
 20
13.3455110186
 30
0.0
 10
17.0891578623
 20
13.3229238993
 30
0.0
 10
17.1210706394
 20
13.3076550134
 30
0.0
 10
17.146463019
 20
13.2975477241
 30
0.0
 10
17.1729813961
 20
13.2889358555
 30
0.0
 10
17.2100638908
 20
13.279396828
 30
0.0
 10
17.2587520247
 20
13.2714724562
 30
0.0
 10
17.2985237325
 20
13.2694531447
 30
0.0
 10
17.318754717
 20
13.2694531447
 30
0.0
  0
SPLINE
  5
3FD
100
AcDbEntity
  8
02___PRT_ALL_AXES
100
AcDbSpline
 62
7
  6
BYLAYER
 70
0
 71
3
 72
27
 73
23
 74
0
 42
0.0000001
 43
0.0000001
 44
0.0000000001
 40
0.0
 40
0.0
 40
0.0
 40
0.0
 40
0.0365543145
 40
0.0577236384
 40
0.0811775824
 40
0.1070411492
 40
0.1353331506
 40
0.1988579178
 40
0.2706300455
 40
0.3488380637
 40
0.4312678551
 40
0.5154690607
 40
0.5988969118
 40
0.6790476185
 40
0.753596068
 40
0.8205494401
 40
0.8784468499
 40
0.9266705119
 40
0.9473839634
 40
0.9661578409
 40
0.9834724891
 40
1.0
 40
1.0
 40
1.0
 40
1.0
 10
17.9496548567
 20
12.6270293988
 30
0.0
 10
17.950702887
 20
12.6273391807
 30
0.0
 10
17.9522400725
 20
12.6282414712
 30
0.0
 10
17.9539937891
 20
12.6299199666
 30
0.0
 10
17.9553201872
 20
12.6315660176
 30
0.0
 10
17.9565762969
 20
12.6335205752
 30
0.0
 10
17.9582110884
 20
12.6366403155
 30
0.0
 10
17.9599762902
 20
12.6412180542
 30
0.0
 10
17.9616066326
 20
12.6473989955
 30
0.0
 10
17.9627651462
 20
12.6542586708
 30
0.0
 10
17.9634097845
 20
12.6615570774
 30
0.0
 10
17.9635167087
 20
12.6690389277
 30
0.0
 10
17.9630820145
 20
12.6764407499
 30
0.0
 10
17.9621216683
 20
12.6835026974
 30
0.0
 10
17.9606711897
 20
12.68997788
 30
0.0
 10
17.9587817671
 20
12.6956464724
 30
0.0
 10
17.9565203948
 20
12.7003175483
 30
0.0
 10
17.9542693903
 20
12.7034150158
 30
0.0
 10
17.9523103962
 20
12.7051728799
 30
0.0
 10
17.9508655345
 20
12.7060839457
 30
0.0
 10
17.949381517
 20
12.7066410218
 30
0.0
 10
17.9483658329
 20
12.706767163
 30
0.0
 10
17.9478717141
 20
12.706766937
 30
0.0
  0
SPLINE
  5
3FE
100
AcDbEntity
  8
0
100
AcDbSpline
 62
7
  6
BYLAYER
 70
0
 71
3
 72
24
 73
20
 74
0
 42
0.0000001
 43
0.0000001
 44
0.0000000001
 40
0.0
 40
0.0
 40
0.0
 40
0.0
 40
0.0516912944
 40
0.0777116051
 40
0.1039184114
 40
0.1570850719
 40
0.2116265303
 40
0.239528845
 40
0.2678856948
 40
0.3260314432
 40
0.3862111607
 40
0.44845176
 40
0.5126935106
 40
0.578800105
 40
0.6465696219
 40
0.7157457953
 40
0.7860290532
 40
0.8570872629
 40
1.0
 40
1.0
 40
1.0
 40
1.0
 10
17.9466781726
 20
13.9436972538
 30
0.0
 10
17.952735397
 20
13.931354515
 30
0.0
 10
17.9605145536
 20
13.9121038989
 30
0.0
 10
17.9680827948
 20
13.8855031729
 30
0.0
 10
17.9738476223
 20
13.8580475521
 30
0.0
 10
17.9775047082
 20
13.8224988158
 30
0.0
 10
17.976413893
 20
13.7863408169
 30
0.0
 10
17.9727889818
 20
13.7570782134
 30
0.0
 10
17.9672252358
 20
13.7271447554
 30
0.0
 10
17.956703681
 20
13.6894800063
 30
0.0
 10
17.9387768467
 20
13.6448307293
 30
0.0
 10
17.9156426605
 20
13.6008092813
 30
0.0
 10
17.8875549789
 20
13.5578839363
 30
0.0
 10
17.8548169565
 20
13.5165058734
 30
0.0
 10
17.8177794617
 20
13.4771119939
 30
0.0
 10
17.7768400556
 20
13.4401198964
 30
0.0
 10
17.7324291448
 20
13.4059181306
 30
0.0
 10
17.6691401226
 20
13.3644669945
 30
0.0
 10
17.6180752664
 20
13.3387074528
 30
0.0
 10
17.5829532122
 20
13.324169037
 30
0.0
  0
SPLINE
  5
3FF
100
AcDbEntity
  8
0
100
AcDbSpline
 62
7
  6
BYLAYER
 70
0
 71
3
 72
11
 73
7
 74
0
 42
0.0000001
 43
0.0000001
 44
0.0000000001
 40
0.0
 40
0.0
 40
0.0
 40
0.0
 40
0.2567202874
 40
0.5101196385
 40
0.7584003717
 40
1.0
 40
1.0
 40
1.0
 40
1.0
 10
17.5829532122
 20
13.324169037
 30
0.0
 10
17.5614933721
 20
13.3152859553
 30
0.0
 10
17.5180148513
 20
13.2995790931
 30
0.0
 10
17.4514900854
 20
13.282374626
 30
0.0
 10
17.3849620053
 20
13.2718869675
 30
0.0
 10
17.3406124532
 20
13.2694531447
 30
0.0
 10
17.318754717
 20
13.2694531447
 30
0.0
  0
SPLINE
  5
400
100
AcDbEntity
  8
02___PRT_ALL_AXES
100
AcDbSpline
 62
7
  6
BYLAYER
 70
0
 71
3
 72
18
 73
14
 74
0
 42
0.0000001
 43
0.0000001
 44
0.0000000001
 40
0.0
 40
0.0
 40
0.0
 40
0.0
 40
0.0328410788
 40
0.0676132805
 40
0.1058832841
 40
0.1487046021
 40
0.1966619251
 40
0.2499802493
 40
0.3722493529
 40
0.5132230757
 40
0.6685783853
 40
0.8328560098
 40
1.0
 40
1.0
 40
1.0
 40
1.0
 10
18.204964106
 20
12.9937158287
 30
0.0
 10
18.2055150208
 20
12.9937157203
 30
0.0
 10
18.206654418
 20
12.9938746274
 30
0.0
 10
18.208306377
 20
12.9945700105
 30
0.0
 10
18.2099027788
 20
12.9957004642
 30
0.0
 10
18.2114317155
 20
12.9972449708
 30
0.0
 10
18.2128838918
 20
12.9991850452
 30
0.0
 10
18.2147877118
 20
13.0024227676
 30
0.0
 10
18.2168271072
 20
13.0073517933
 30
0.0
 10
18.2186772692
 20
13.0141385364
 30
0.0
 10
18.219948931
 20
13.0217719903
 30
0.0
 10
18.2205847317
 20
13.0299218146
 30
0.0
 10
18.2205650131
 20
13.0354887857
 30
0.0
 10
18.2204394573
 20
13.0382898425
 30
0.0
  0
SPLINE
  5
401
100
AcDbEntity
  8
02___PRT_ALL_AXES
100
AcDbSpline
 62
7
  6
BYLAYER
 70
0
 71
3
 72
14
 73
10
 74
0
 42
0.0000001
 43
0.0000001
 44
0.0000000001
 40
0.0
 40
0.0
 40
0.0
 40
0.0
 40
0.0858720494
 40
0.177464953
 40
0.2792897935
 40
0.3942336666
 40
0.5237624258
 40
0.6682599514
 40
1.0
 40
1.0
 40
1.0
 40
1.0
 10
18.3296584044
 20
12.7396168809
 30
0.0
 10
18.3302473682
 20
12.7396168611
 30
0.0
 10
18.3314706679
 20
12.7397999734
 30
0.0
 10
18.3332337202
 20
12.7405967338
 30
0.0
 10
18.334928443
 20
12.7418857156
 30
0.0
 10
18.3365422097
 20
12.7436412212
 30
0.0
 10
18.3380638898
 20
12.7458407487
 30
0.0
 10
18.3400407846
 20
12.7495017117
 30
0.0
 10
18.3411884422
 20
12.7525786329
 30
0.0
 10
18.3418602123
 20
12.7547524819
 30
0.0
  0
LINE
  5
402
100
AcDbEntity
  8
02___PRT_ALL_AXES
100
AcDbLine
 62
7
  6
BYLAYER
 10
18.3478634125
 20
12.33352288
 11
18.3496427046
 21
12.3337851867
  0
SPLINE
  5
403
100
AcDbEntity
  8
02___PRT_ALL_AXES
100
AcDbSpline
 62
7
  6
BYLAYER
 70
0
 71
3
 72
19
 73
15
 74
0
 42
0.0000001
 43
0.0000001
 44
0.0000000001
 40
0.0
 40
0.0
 40
0.0
 40
0.0
 40
0.1393866796
 40
0.2927780429
 40
0.4502723744
 40
0.601482691
 40
0.6716960273
 40
0.7368633404
 40
0.7961296553
 40
0.8488964717
 40
0.89493011
 40
0.934536435
 40
0.9688288018
 40
1.0
 40
1.0
 40
1.0
 40
1.0
 10
17.9782782637
 20
12.2358085375
 30
0.0
 10
17.9792509243
 20
12.2389560684
 30
0.0
 10
17.9807375045
 20
12.2457419302
 30
0.0
 10
17.9817597936
 20
12.2563544163
 30
0.0
 10
17.9816366748
 20
12.2672955725
 30
0.0
 10
17.9805656464
 20
12.2762101891
 30
0.0
 10
17.9791059202
 20
12.2828294892
 30
0.0
 10
17.9777877761
 20
12.2872421291
 30
0.0
 10
17.9762457877
 20
12.2911427451
 30
0.0
 10
17.9745080915
 20
12.2944598318
 30
0.0
 10
17.9726034369
 20
12.2971354172
 30
0.0
 10
17.9705532444
 20
12.2991234341
 30
0.0
 10
17.9683710107
 20
12.3003767539
 30
0.0
 10
17.9668134508
 20
12.3006729112
 30
0.0
 10
17.9660767222
 20
12.300672936
 30
0.0
  0
SPLINE
  5
404
100
AcDbEntity
  8
0
100
AcDbSpline
 62
7
  6
BYLAYER
 70
0
 71
3
 72
34
 73
30
 74
0
 42
0.0000001
 43
0.0000001
 44
0.0000000001
 40
0.0
 40
0.0
 40
0.0
 40
0.0
 40
0.03305408
 40
0.0673899343
 40
0.102882349
 40
0.139398835
 40
0.2149197538
 40
0.2927514709
 40
0.3716143974
 40
0.4110271906
 40
0.4502065662
 40
0.5272116997
 40
0.6013819518
 40
0.6370390667
 40
0.6715585813
 40
0.7048152115
 40
0.7366950967
 40
0.7670978176
 40
0.7959387847
 40
0.8231521618
 40
0.8486945317
 40
0.8725495738
 40
0.8947340777
 40
0.9153055935
 40
0.9343717833
 40
0.9521008175
 40
0.9687305738
 40
0.9845719766
 40
1.0
 40
1.0
 40
1.0
 40
1.0
 10
17.9433508573
 20
12.9369061372
 30
0.0
 10
17.9394821354
 20
12.9243869485
 30
0.0
 10
17.9321212961
 20
12.8986978878
 30
0.0
 10
17.9223550091
 20
12.8590913721
 30
0.0
 10
17.9136884793
 20
12.8178259778
 30
0.0
 10
17.903544582
 20
12.7602199067
 30
0.0
 10
17.8939745403
 20
12.6855128497
 30
0.0
 10
17.8875026717
 20
12.5936408161
 30
0.0
 10
17.8862894931
 20
12.515867034
 30
0.0
 10
17.8878605738
 20
12.4534616853
 30
0.0
 10
17.8911074818
 20
12.3918584359
 30
0.0
 10
17.8982053782
 20
12.3166900343
 30
0.0
 10
17.9094888804
 20
12.2434384462
 30
0.0
 10
17.9209653866
 20
12.1873693992
 30
0.0
 10
17.9305678126
 20
12.1474974195
 30
0.0
 10
17.9412297211
 20
12.1094476634
 30
0.0
 10
17.952899261
 20
12.0734050148
 30
0.0
 10
17.9655193213
 20
12.0395444784
 30
0.0
 10
17.9790286174
 20
12.0080298083
 30
0.0
 10
17.9933620796
 20
11.9790127291
 30
0.0
 10
18.0084516179
 20
11.9526321299
 30
0.0
 10
18.0242270522
 20
11.929013503
 30
0.0
 10
18.0406173599
 20
11.9082688011
 30
0.0
 10
18.0575519534
 20
11.890497116
 30
0.0
 10
18.0749620634
 20
11.8757867432
 30
0.0
 10
18.0927788754
 20
11.8642189805
 30
0.0
 10
18.1109324588
 20
11.8558724512
 30
0.0
 10
18.129327886
 20
11.850822985
 30
0.0
 10
18.1417511467
 20
11.8496904673
 30
0.0
 10
18.1478671356
 20
11.8496904287
 30
0.0
  0
SPLINE
  5
405
100
AcDbEntity
  8
02___PRT_ALL_AXES
100
AcDbSpline
 62
7
  6
BYLAYER
 70
0
 71
3
 72
22
 73
18
 74
0
 42
0.0000001
 43
0.0000001
 44
0.0000000001
 40
0.0
 40
0.0
 40
0.0
 40
0.0
 40
0.015507359
 40
0.0315171966
 40
0.0666369403
 40
0.1079660869
 40
0.1565812879
 40
0.212593772
 40
0.2754963904
 40
0.3443725486
 40
0.4180235028
 40
0.5738743468
 40
0.7308179692
 40
0.8057963144
 40
0.8764611402
 40
0.9415368517
 40
1.0
 40
1.0
 40
1.0
 40
1.0
 10
18.2489107783
 20
12.0133180206
 30
0.0
 10
18.2493132493
 20
12.0133180271
 30
0.0
 10
18.2501334185
 20
12.0134006308
 30
0.0
 10
18.2517972618
 20
12.0139057632
 30
0.0
 10
18.2538576979
 20
12.0152177227
 30
0.0
 10
18.2560725685
 20
12.0176209662
 30
0.0
 10
18.2581051849
 20
12.0208357753
 30
0.0
 10
18.2599191503
 20
12.0247980216
 30
0.0
 10
18.2614786332
 20
12.0294230945
 30
0.0
 10
18.2627474154
 20
12.0346072721
 30
0.0
 10
18.2640340403
 20
12.0422492382
 30
0.0
 10
18.2647179119
 20
12.0522824292
 30
0.0
 10
18.2642354575
 20
12.0623608648
 30
0.0
 10
18.2631107633
 20
12.070138285
 30
0.0
 10
18.2619492044
 20
12.0754879432
 30
0.0
 10
18.2604862512
 20
12.0803170911
 30
0.0
 10
18.2592618085
 20
12.08328889
 30
0.0
 10
18.2585933615
 20
12.0846510417
 30
0.0
  0
SPLINE
  5
406
100
AcDbEntity
  8
02___PRT_ALL_AXES
100
AcDbSpline
 62
7
  6
BYLAYER
 70
0
 71
3
 72
21
 73
17
 74
0
 42
0.0000001
 43
0.0000001
 44
0.0000000001
 40
0.0
 40
0.0
 40
0.0
 40
0.0
 40
0.0533394179
 40
0.1094591246
 40
0.1690662237
 40
0.2323153903
 40
0.3677248548
 40
0.4386062676
 40
0.5100561976
 40
0.5809159487
 40
0.6500790287
 40
0.7793548491
 40
0.8388927127
 40
0.8949536638
 40
0.948249955
 40
1.0
 40
1.0
 40
1.0
 40
1.0
 10
17.5406426127
 20
13.4106442029
 30
0.0
 10
17.539440876
 20
13.4120305948
 30
0.0
 10
17.5366028532
 20
13.4145698229
 30
0.0
 10
17.5314633014
 20
13.4173803958
 30
0.0
 10
17.5255405019
 20
13.419197194
 30
0.0
 10
17.5166826152
 20
13.4202505322
 30
0.0
 10
17.5073217419
 20
13.4190813771
 30
0.0
 10
17.4982516456
 20
13.4160275209
 30
0.0
 10
17.4916513046
 20
13.4127793313
 30
0.0
 10
17.4855882683
 20
13.4087160602
 30
0.0
 10
17.478657237
 20
13.4025472209
 30
0.0
 10
17.4733117467
 20
13.3952311462
 30
0.0
 10
17.4703500027
 20
13.3872968709
 30
0.0
 10
17.4694537074
 20
13.3815093752
 30
0.0
 10
17.4698758858
 20
13.3759326864
 30
0.0
 10
17.4710502868
 20
13.3724663562
 30
0.0
 10
17.4718343334
 20
13.3708682628
 30
0.0
  0
SPLINE
  5
407
100
AcDbEntity
  8
02___PRT_ALL_AXES
100
AcDbSpline
 62
7
  6
BYLAYER
 70
0
 71
3
 72
17
 73
13
 74
0
 42
0.0000001
 43
0.0000001
 44
0.0000000001
 40
0.0
 40
0.0
 40
0.0
 40
0.0
 40
0.1734341554
 40
0.338959186
 40
0.4922122091
 40
0.6294928998
 40
0.748190817
 40
0.8473818977
 40
0.8902154088
 40
0.9292258956
 40
0.9653836888
 40
1.0
 40
1.0
 40
1.0
 40
1.0
 10
18.1062447823
 20
12.0111480661
 30
0.0
 10
18.1061381897
 20
12.0135260659
 30
0.0
 10
18.1057666457
 20
12.0181682753
 30
0.0
 10
18.1047208652
 20
12.0248494448
 30
0.0
 10
18.1032302481
 20
12.0309375883
 30
0.0
 10
18.1013429349
 20
12.0362415739
 30
0.0
 10
18.0991204115
 20
12.0405968498
 30
0.0
 10
18.0969318866
 20
12.0434718917
 30
0.0
 10
18.0950417598
 20
12.0450986849
 30
0.0
 10
18.0936485215
 20
12.0459421306
 30
0.0
 10
18.0922209649
 20
12.0464573071
 30
0.0
 10
18.0912461303
 20
12.0465738947
 30
0.0
 10
18.0907710206
 20
12.0465739882
 30
0.0
  0
SPLINE
  5
408
100
AcDbEntity
  8
02___PRT_ALL_AXES
100
AcDbSpline
 62
7
  6
BYLAYER
 70
0
 71
3
 72
18
 73
14
 74
0
 42
0.0000001
 43
0.0000001
 44
0.0000000001
 40
0.0
 40
0.0
 40
0.0
 40
0.0
 40
0.0328410788
 40
0.0676132805
 40
0.1058832841
 40
0.1487046021
 40
0.1966619251
 40
0.2499802493
 40
0.3722493529
 40
0.5132230757
 40
0.6685783853
 40
0.8328560098
 40
1.0
 40
1.0
 40
1.0
 40
1.0
 10
18.090769431
 20
11.9665740524
 30
0.0
 10
18.0913203458
 20
11.9665739439
 30
0.0
 10
18.092459743
 20
11.9667328511
 30
0.0
 10
18.094111702
 20
11.9674282341
 30
0.0
 10
18.0957081038
 20
11.9685586878
 30
0.0
 10
18.0972370405
 20
11.9701031944
 30
0.0
 10
18.0986892168
 20
11.9720432688
 30
0.0
 10
18.1005930369
 20
11.9752809912
 30
0.0
 10
18.1026324322
 20
11.9802100169
 30
0.0
 10
18.1044825942
 20
11.9869967601
 30
0.0
 10
18.105754256
 20
11.9946302139
 30
0.0
 10
18.1063900567
 20
12.0027800383
 30
0.0
 10
18.1063703382
 20
12.0083470094
 30
0.0
 10
18.1062447823
 20
12.0111480661
 30
0.0
  0
SPLINE
  5
409
100
AcDbEntity
  8
02___PRT_ALL_AXES
100
AcDbSpline
 62
7
  6
BYLAYER
 70
0
 71
3
 72
13
 73
9
 74
0
 42
0.0000001
 43
0.0000001
 44
0.0000000001
 40
0.0
 40
0.0
 40
0.0
 40
0.0
 40
0.2850276125
 40
0.5476028922
 40
0.6688652013
 40
0.7835806064
 40
0.8931954405
 40
1.0
 40
1.0
 40
1.0
 40
1.0
 10
17.8403631873
 20
13.8525953998
 30
0.0
 10
17.8366750221
 20
13.8501115452
 30
0.0
 10
17.8301362524
 20
13.844449695
 30
0.0
 10
17.8243345785
 20
13.8355537213
 30
0.0
 10
17.821923816
 20
13.8281153184
 30
0.0
 10
17.8212845132
 20
13.8227223592
 30
0.0
 10
17.8218011406
 20
13.8175398063
 30
0.0
 10
17.8229241827
 20
13.8143153814
 30
0.0
 10
17.8236580252
 20
13.8128194789
 30
0.0
  0
SPLINE
  5
40A
100
AcDbEntity
  8
02___PRT_ALL_AXES
100
AcDbSpline
 62
7
  6
BYLAYER
 70
0
 71
3
 72
12
 73
8
 74
0
 42
0.0000001
 43
0.0000001
 44
0.0000000001
 40
0.0
 40
0.0
 40
0.0
 40
0.0
 40
0.3156248899
 40
0.5814722806
 40
0.8037155963
 40
0.9036880776
 40
1.0
 40
1.0
 40
1.0
 40
1.0
 10
18.2585933615
 20
12.0846510417
 30
0.0
 10
18.257961923
 20
12.0859377781
 30
0.0
 10
18.256649279
 20
12.0882433973
 30
0.0
 10
18.2542903991
 20
12.091059794
 30
0.0
 10
18.252057912
 20
12.0926189793
 30
0.0
 10
18.2502421356
 20
12.0932198515
 30
0.0
 10
18.2493480118
 20
12.0933179172
 30
0.0
 10
18.2489106389
 20
12.0933179101
 30
0.0
  0
SPLINE
  5
40B
100
AcDbEntity
  8
02___PRT_ALL_AXES
100
AcDbSpline
 62
7
  6
BYLAYER
 70
0
 71
3
 72
14
 73
10
 74
0
 42
0.0000001
 43
0.0000001
 44
0.0000000001
 40
0.0
 40
0.0
 40
0.0
 40
0.0
 40
0.0858720494
 40
0.177464953
 40
0.2792897935
 40
0.3942336666
 40
0.5237624258
 40
0.6682599514
 40
1.0
 40
1.0
 40
1.0
 40
1.0
 10
17.9660764557
 20
12.2206729365
 30
0.0
 10
17.9666654195
 20
12.2206729167
 30
0.0
 10
17.9678887192
 20
12.220856029
 30
0.0
 10
17.9696517716
 20
12.2216527894
 30
0.0
 10
17.9713464944
 20
12.2229417712
 30
0.0
 10
17.972960261
 20
12.2246972768
 30
0.0
 10
17.9744819412
 20
12.2268968044
 30
0.0
 10
17.9764588359
 20
12.2305577673
 30
0.0
 10
17.9776064935
 20
12.2336346886
 30
0.0
 10
17.9782782637
 20
12.2358085375
 30
0.0
  0
SPLINE
  5
40C
100
AcDbEntity
  8
02___PRT_ALL_AXES
100
AcDbSpline
 62
7
  6
BYLAYER
 70
0
 71
3
 72
27
 73
23
 74
0
 42
0.0000001
 43
0.0000001
 44
0.0000000001
 40
0.0
 40
0.0
 40
0.0
 40
0.0
 40
0.0365543145
 40
0.0577236384
 40
0.0811775824
 40
0.1070411492
 40
0.1353331506
 40
0.1988579178
 40
0.2706300455
 40
0.3488380637
 40
0.4312678551
 40
0.5154690607
 40
0.5988969118
 40
0.6790476185
 40
0.753596068
 40
0.8205494401
 40
0.8784468499
 40
0.9266705119
 40
0.9473839634
 40
0.9661578409
 40
0.9834724891
 40
1.0
 40
1.0
 40
1.0
 40
1.0
 10
18.3496427046
 20
12.3337851867
 30
0.0
 10
18.3506907349
 20
12.3340949686
 30
0.0
 10
18.3522279204
 20
12.334997259
 30
0.0
 10
18.3539816369
 20
12.3366757545
 30
0.0
 10
18.355308035
 20
12.3383218054
 30
0.0
 10
18.3565641448
 20
12.340276363
 30
0.0
 10
18.3581989363
 20
12.3433961034
 30
0.0
 10
18.3599641381
 20
12.3479738421
 30
0.0
 10
18.3615944804
 20
12.3541547834
 30
0.0
 10
18.3627529941
 20
12.3610144587
 30
0.0
 10
18.3633976324
 20
12.3683128653
 30
0.0
 10
18.3635045565
 20
12.3757947156
 30
0.0
 10
18.3630698624
 20
12.3831965377
 30
0.0
 10
18.3621095162
 20
12.3902584852
 30
0.0
 10
18.3606590376
 20
12.3967336678
 30
0.0
 10
18.3587696149
 20
12.4024022603
 30
0.0
 10
18.3565082427
 20
12.4070733362
 30
0.0
 10
18.3542572382
 20
12.4101708037
 30
0.0
 10
18.3522982441
 20
12.4119286678
 30
0.0
 10
18.3508533824
 20
12.4128397336
 30
0.0
 10
18.3493693649
 20
12.4133968096
 30
0.0
 10
18.3483536808
 20
12.4135229509
 30
0.0
 10
18.347859562
 20
12.4135227248
 30
0.0
  0
SPLINE
  5
40D
100
AcDbEntity
  8
0
100
AcDbSpline
 62
7
  6
BYLAYER
 70
0
 71
3
 72
18
 73
14
 74
0
 42
0.0000001
 43
0.0000001
 44
0.0000000001
 40
0.0
 40
0.0
 40
0.0
 40
0.0
 40
0.14186634
 40
0.2783893558
 40
0.4093677578
 40
0.4728460678
 40
0.5350251566
 40
0.6557387698
 40
0.7725265042
 40
0.8298949678
 40
0.8867940264
 40
0.9434258821
 40
1.0
 40
1.0
 40
1.0
 40
1.0
 10
17.5181293434
 20
13.9146296721
 30
0.0
 10
17.5286122901
 20
13.9146296721
 30
0.0
 10
17.5492053295
 20
13.9135349559
 30
0.0
 10
17.5790894833
 20
13.908426422
 30
0.0
 10
17.6025631469
 20
13.9012854989
 30
0.0
 10
17.6200477476
 20
13.8939061421
 30
0.0
 10
17.6362829137
 20
13.8856402566
 30
0.0
 10
17.6548620464
 20
13.8734218003
 30
0.0
 10
17.6709888983
 20
13.858608654
 30
0.0
 10
17.6819898121
 20
13.8455280824
 30
0.0
 10
17.689260193
 20
13.8351820242
 30
0.0
 10
17.6955632888
 20
13.8242892155
 30
0.0
 10
17.699102345
 20
13.8166953446
 30
0.0
 10
17.700699499
 20
13.8128320349
 30
0.0
  0
LINE
  5
40E
100
AcDbEntity
  8
02___PRT_ALL_AXES
100
AcDbLine
 62
7
  6
BYLAYER
 10
17.9478755646
 20
12.6267670921
 11
17.9496548567
 21
12.6270293988
  0
SPLINE
  5
40F
100
AcDbEntity
  8
02___PRT_ALL_AXES
100
AcDbSpline
 62
7
  6
BYLAYER
 70
0
 71
3
 72
19
 73
15
 74
0
 42
0.0000001
 43
0.0000001
 44
0.0000000001
 40
0.0
 40
0.0
 40
0.0
 40
0.0
 40
0.1393866796
 40
0.2927780429
 40
0.4502723744
 40
0.601482691
 40
0.6716960273
 40
0.7368633404
 40
0.7961296553
 40
0.8488964717
 40
0.89493011
 40
0.934536435
 40
0.9688288018
 40
1.0
 40
1.0
 40
1.0
 40
1.0
 10
18.3418602123
 20
12.7547524819
 30
0.0
 10
18.3428328729
 20
12.7579000128
 30
0.0
 10
18.3443194531
 20
12.7646858746
 30
0.0
 10
18.3453417423
 20
12.7752983607
 30
0.0
 10
18.3452186235
 20
12.7862395168
 30
0.0
 10
18.3441475951
 20
12.7951541335
 30
0.0
 10
18.3426878689
 20
12.8017734336
 30
0.0
 10
18.3413697247
 20
12.8061860735
 30
0.0
 10
18.3398277364
 20
12.8100866895
 30
0.0
 10
18.3380900402
 20
12.8134037761
 30
0.0
 10
18.3361853855
 20
12.8160793616
 30
0.0
 10
18.3341351931
 20
12.8180673785
 30
0.0
 10
18.3319529593
 20
12.8193206983
 30
0.0
 10
18.3303953995
 20
12.8196168556
 30
0.0
 10
18.3296586709
 20
12.8196168804
 30
0.0
  0
SPLINE
  5
410
100
AcDbEntity
  8
02___PRT_ALL_AXES
100
AcDbSpline
 62
7
  6
BYLAYER
 70
0
 71
3
 72
22
 73
18
 74
0
 42
0.0000001
 43
0.0000001
 44
0.0000000001
 40
0.0
 40
0.0
 40
0.0
 40
0.0
 40
0.015507359
 40
0.0315171966
 40
0.0666369403
 40
0.1079660869
 40
0.1565812879
 40
0.212593772
 40
0.2754963904
 40
0.3443725486
 40
0.4180235028
 40
0.5738743468
 40
0.7308179692
 40
0.8057963144
 40
0.8764611402
 40
0.9415368517
 40
1.0
 40
1.0
 40
1.0
 40
1.0
 10
18.0468244878
 20
12.9469719068
 30
0.0
 10
18.0472269588
 20
12.9469719133
 30
0.0
 10
18.0480471279
 20
12.947054517
 30
0.0
 10
18.0497109713
 20
12.9475596494
 30
0.0
 10
18.0517714073
 20
12.948871609
 30
0.0
 10
18.053986278
 20
12.9512748525
 30
0.0
 10
18.0560188943
 20
12.9544896615
 30
0.0
 10
18.0578328597
 20
12.9584519079
 30
0.0
 10
18.0593923426
 20
12.9630769807
 30
0.0
 10
18.0606611249
 20
12.9682611584
 30
0.0
 10
18.0619477498
 20
12.9759031245
 30
0.0
 10
18.0626316213
 20
12.9859363155
 30
0.0
 10
18.0621491669
 20
12.9960147511
 30
0.0
 10
18.0610244727
 20
13.0037921712
 30
0.0
 10
18.0598629138
 20
13.0091418295
 30
0.0
 10
18.0583999606
 20
13.0139709773
 30
0.0
 10
18.0571755179
 20
13.0169427763
 30
0.0
 10
18.056507071
 20
13.018304928
 30
0.0
  0
SPLINE
  5
411
100
AcDbEntity
  8
02___PRT_ALL_AXES
100
AcDbSpline
 62
7
  6
BYLAYER
 70
0
 71
3
 72
17
 73
13
 74
0
 42
0.0000001
 43
0.0000001
 44
0.0000000001
 40
0.0
 40
0.0
 40
0.0
 40
0.0
 40
0.1325925142
 40
0.2707735877
 40
0.4099481224
 40
0.5453247206
 40
0.672858506
 40
0.79022537
 40
0.8452543801
 40
0.89815623
 40
0.9494936863
 40
1.0
 40
1.0
 40
1.0
 40
1.0
 10
17.1343398638
 20
13.8617726454
 30
0.0
 10
17.130913207
 20
13.8617726454
 30
0.0
 10
17.1238992203
 20
13.8609451049
 30
0.0
 10
17.1137834504
 20
13.857588855
 30
0.0
 10
17.1044311563
 20
13.8523203475
 30
0.0
 10
17.0964964789
 20
13.8454976592
 30
0.0
 10
17.0905310715
 20
13.8375842422
 30
0.0
 10
17.0875008301
 20
13.8303299879
 30
0.0
 10
17.0865373398
 20
13.8245651588
 30
0.0
 10
17.0865322232
 20
13.8204284801
 30
0.0
 10
17.0872345203
 20
13.8164701688
 30
0.0
 10
17.088172308
 20
13.8139913272
 30
0.0
 10
17.0887471795
 20
13.812819479
 30
0.0
  0
SPLINE
  5
412
100
AcDbEntity
  8
02___PRT_ALL_AXES
100
AcDbSpline
 62
7
  6
BYLAYER
 70
0
 71
3
 72
17
 73
13
 74
0
 42
0.0000001
 43
0.0000001
 44
0.0000000001
 40
0.0
 40
0.0
 40
0.0
 40
0.0
 40
0.1734341554
 40
0.338959186
 40
0.4922122091
 40
0.6294928998
 40
0.748190817
 40
0.8473818977
 40
0.8902154088
 40
0.9292258956
 40
0.9653836888
 40
1.0
 40
1.0
 40
1.0
 40
1.0
 10
18.2204394573
 20
13.0382898425
 30
0.0
 10
18.2203328647
 20
13.0406678423
 30
0.0
 10
18.2199613206
 20
13.0453100516
 30
0.0
 10
18.2189155402
 20
13.0519912211
 30
0.0
 10
18.2174249231
 20
13.0580793646
 30
0.0
 10
18.2155376099
 20
13.0633833503
 30
0.0
 10
18.2133150864
 20
13.0677386262
 30
0.0
 10
18.2111265616
 20
13.070613668
 30
0.0
 10
18.2092364348
 20
13.0722404612
 30
0.0
 10
18.2078431965
 20
13.073083907
 30
0.0
 10
18.2064156398
 20
13.0735990834
 30
0.0
 10
18.2054408052
 20
13.073715671
 30
0.0
 10
18.2049656956
 20
13.0737157645
 30
0.0
  0
SPLINE
  5
413
100
AcDbEntity
  8
0
100
AcDbSpline
 62
7
  6
BYLAYER
 70
0
 71
3
 72
15
 73
11
 74
0
 42
0.0000001
 43
0.0000001
 44
0.0000000001
 40
0.0
 40
0.0
 40
0.0
 40
0.0
 40
0.1639879258
 40
0.315433665
 40
0.4543869286
 40
0.5813401534
 40
0.6973096392
 40
0.8039851405
 40
0.9038198887
 40
1.0
 40
1.0
 40
1.0
 40
1.0
 10
18.2164163449
 20
12.741968847
 30
0.0
 10
18.2140905287
 20
12.746708362
 30
0.0
 10
18.2093174905
 20
12.7556836504
 30
0.0
 10
18.2014463565
 20
12.7680343353
 30
0.0
 10
18.1931921717
 20
12.7786653163
 30
0.0
 10
18.1846037359
 20
12.7875041018
 30
0.0
 10
18.1757264408
 20
12.7944868702
 30
0.0
 10
18.1666031743
 20
12.7995514318
 30
0.0
 10
18.157293301
 20
12.8026319765
 30
0.0
 10
18.1509633551
 20
12.8033267933
 30
0.0
 10
18.1478669286
 20
12.8033267248
 30
0.0
  0
SPLINE
  5
414
100
AcDbEntity
  8
0
100
AcDbSpline
 62
7
  6
BYLAYER
 70
0
 71
3
 72
11
 73
7
 74
0
 42
0.0000001
 43
0.0000001
 44
0.0000000001
 40
0.0
 40
0.0
 40
0.0
 40
0.0
 40
0.2430026304
 40
0.5000051482
 40
0.7570060799
 40
1.0
 40
1.0
 40
1.0
 40
1.0
 10
17.367984368
 20
12.9458377348
 30
0.0
 10
17.3656955956
 20
12.9460328982
 30
0.0
 10
17.3609066267
 20
12.9456748077
 30
0.0
 10
17.3540815936
 20
12.9433029882
 30
0.0
 10
17.3480298557
 20
12.9393555859
 30
0.0
 10
17.3448166913
 20
12.9357867002
 30
0.0
 10
17.3435707434
 20
12.9338569843
 30
0.0
  0
SPLINE
  5
415
100
AcDbEntity
  8
0
100
AcDbSpline
 62
7
  6
BYLAYER
 70
0
 71
3
 72
22
 73
18
 74
0
 42
0.0000001
 43
0.0000001
 44
0.0000000001
 40
0.0
 40
0.0
 40
0.0
 40
0.0
 40
0.1726685391
 40
0.2539493381
 40
0.3316741629
 40
0.4057410704
 40
0.4760841698
 40
0.542678084
 40
0.6055437131
 40
0.6647580925
 40
0.7204639095
 40
0.7728808776
 40
0.8223183012
 40
0.8691857011
 40
0.9139978696
 40
0.9573703209
 40
1.0
 40
1.0
 40
1.0
 40
1.0
 10
17.9433508573
 20
12.9369061372
 30
0.0
 10
17.9492173166
 20
12.9558900066
 30
0.0
 10
17.9587192512
 20
12.9835592151
 30
0.0
 10
17.9731772019
 20
13.0188903523
 30
0.0
 10
17.9843531477
 20
13.0432810563
 30
0.0
 10
17.9960446811
 20
13.0660231926
 30
0.0
 10
18.008216016
 20
13.0870463147
 30
0.0
 10
18.0208298111
 20
13.1062851508
 30
0.0
 10
18.0338483482
 20
13.1236801078
 30
0.0
 10
18.0472332029
 20
13.139177309
 30
0.0
 10
18.0609459776
 20
13.1527282338
 30
0.0
 10
18.0749484528
 20
13.1642889703
 30
0.0
 10
18.0892022735
 20
13.173819549
 30
0.0
 10
18.1036672649
 20
13.1812831959
 30
0.0
 10
18.1183014275
 20
13.1866458022
 30
0.0
 10
18.1330514104
 20
13.189877476
 30
0.0
 10
18.1429624278
 20
13.1905994192
 30
0.0
 10
18.147867991
 20
13.1905993883
 30
0.0
  0
SPLINE
  5
416
100
AcDbEntity
  8
0
100
AcDbSpline
 62
7
  6
BYLAYER
 70
0
 71
3
 72
9
 73
5
 74
0
 42
0.0000001
 43
0.0000001
 44
0.0000000001
 40
0.0
 40
0.0
 40
0.0
 40
0.0
 40
0.4828768984
 40
1.0
 40
1.0
 40
1.0
 40
1.0
 10
17.7023301299
 20
13.0398050539
 30
0.0
 10
17.6903058528
 20
13.0472883885
 30
0.0
 10
17.6647084406
 20
13.0616711795
 30
0.0
 10
17.6383548982
 20
13.0745603562
 30
0.0
 10
17.6246397826
 20
13.081036411
 30
0.0
  0
SPLINE
  5
417
100
AcDbEntity
  8
0
100
AcDbSpline
 62
7
  6
BYLAYER
 70
0
 71
3
 72
11
 73
7
 74
0
 42
0.0000001
 43
0.0000001
 44
0.0000000001
 40
0.0
 40
0.0
 40
0.0
 40
0.0
 40
0.2393030435
 40
0.4828242832
 40
0.7352785346
 40
1.0
 40
1.0
 40
1.0
 40
1.0
 10
17.330330102
 20
12.9410084474
 30
0.0
 10
17.3299237436
 20
12.9417504046
 30
0.0
 10
17.3292664224
 20
12.943342969
 30
0.0
 10
17.3288126466
 20
12.9459212718
 30
0.0
 10
17.3288947034
 20
12.948626044
 30
0.0
 10
17.3292918887
 20
12.9504221006
 30
0.0
 10
17.3295681822
 20
12.9513161864
 30
0.0
  0
SPLINE
  5
418
100
AcDbEntity
  8
0
100
AcDbSpline
 62
7
  6
BYLAYER
 70
0
 71
3
 72
21
 73
17
 74
0
 42
0.0000001
 43
0.0000001
 44
0.0000000001
 40
0.0
 40
0.0
 40
0.0
 40
0.0
 40
0.0513847256
 40
0.1006177777
 40
0.148558046
 40
0.1961549972
 40
0.2443876753
 40
0.2941950057
 40
0.4015640078
 40
0.4606001732
 40
0.5237544253
 40
0.591334901
 40
0.6635464801
 40
0.7405063684
 40
0.8222595894
 40
1.0
 40
1.0
 40
1.0
 40
1.0
 10
17.7959612799
 20
12.0587556113
 30
0.0
 10
17.7930813362
 20
12.0569633323
 30
0.0
 10
17.7872182372
 20
12.0537940519
 30
0.0
 10
17.7779960681
 20
12.0503622069
 30
0.0
 10
17.7686047983
 20
12.0483967633
 30
0.0
 10
17.7590878488
 20
12.047914745
 30
0.0
 10
17.7494886124
 20
12.0489206183
 30
0.0
 10
17.7363169568
 20
12.0523150341
 30
0.0
 10
17.7233862784
 20
12.0587537717
 30
0.0
 10
17.7110403753
 20
12.0675603353
 30
0.0
 10
17.7015589077
 20
12.0757781775
 30
0.0
 10
17.6921884042
 20
12.0853705064
 30
0.0
 10
17.6829500798
 20
12.0963116804
 30
0.0
 10
17.6738717801
 20
12.1085695365
 30
0.0
 10
17.6616760004
 20
12.1271425852
 30
0.0
 10
17.6533856087
 20
12.1421693
 30
0.0
 10
17.6481118831
 20
12.1526506405
 30
0.0
  0
SPLINE
  5
419
100
AcDbEntity
  8
0
100
AcDbSpline
 62
7
  6
BYLAYER
 70
0
 71
3
 72
15
 73
11
 74
0
 42
0.0000001
 43
0.0000001
 44
0.0000000001
 40
0.0
 40
0.0
 40
0.0
 40
0.0
 40
0.1030810046
 40
0.2062947221
 40
0.3141961849
 40
0.4303417341
 40
0.5568349541
 40
0.6943908989
 40
0.8425683021
 40
1.0
 40
1.0
 40
1.0
 40
1.0
 10
17.4088131191
 20
12.9607458743
 30
0.0
 10
17.4097190544
 20
12.9588997115
 30
0.0
 10
17.4110204879
 20
12.9549227647
 30
0.0
 10
17.4111465196
 20
12.948571404
 30
0.0
 10
17.4094671413
 20
12.9421855868
 30
0.0
 10
17.4061105919
 20
12.935988023
 30
0.0
 10
17.4012346087
 20
12.9301258896
 30
0.0
 10
17.3950035301
 20
12.9247135691
 30
0.0
 10
17.3875958603
 20
12.9198481236
 30
0.0
 10
17.3821400236
 20
12.9170966459
 30
0.0
 10
17.3792698066
 20
12.915821419
 30
0.0
  0
SPLINE
  5
41A
100
AcDbEntity
  8
0
100
AcDbSpline
 62
7
  6
BYLAYER
 70
0
 71
3
 72
37
 73
33
 74
0
 42
0.0000001
 43
0.0000001
 44
0.0000000001
 40
0.0
 40
0.0
 40
0.0
 40
0.0
 40
0.0883123169
 40
0.1774293137
 40
0.2662042957
 40
0.3534973922
 40
0.4381877628
 40
0.5191929597
 40
0.5954966383
 40
0.666176723
 40
0.73043203
 40
0.759939533
 40
0.7876060865
 40
0.8133747602
 40
0.8371996841
 40
0.8590458413
 40
0.8788901884
 40
0.8967227581
 40
0.9125503142
 40
0.9264086823
 40
0.9326286742
 40
0.9384091145
 40
0.9438000951
 40
0.9488942649
 40
0.9538657952
 40
0.9590372176
 40
0.9649779313
 40
0.9726497732
 40
0.9776030693
 40
0.9836464062
 40
0.9910648578
 40
1.0
 40
1.0
 40
1.0
 40
1.0
 10
17.605668957
 20
12.4187266714
 30
0.0
 10
17.6061247518
 20
12.4375839965
 30
0.0
 10
17.6079020158
 20
12.4754526689
 30
0.0
 10
17.6126554503
 20
12.5321224335
 30
0.0
 10
17.6191265986
 20
12.5884009901
 30
0.0
 10
17.626953278
 20
12.643550038
 30
0.0
 10
17.6358124702
 20
12.6968601349
 30
0.0
 10
17.6454388188
 20
12.7476494612
 30
0.0
 10
17.655583011
 20
12.7952821235
 30
0.0
 10
17.6659859238
 20
12.8391895763
 30
0.0
 10
17.674914416
 20
12.8731639612
 30
0.0
 10
17.6820188932
 20
12.8981090794
 30
0.0
 10
17.6871046973
 20
12.9150799169
 30
0.0
 10
17.6920600789
 20
12.9308210432
 30
0.0
 10
17.6968386044
 20
12.9453129653
 30
0.0
 10
17.7013909511
 20
12.9585457669
 30
0.0
 10
17.7056621575
 20
12.9705206639
 30
0.0
 10
17.7095808696
 20
12.9812561164
 30
0.0
 10
17.7130499199
 20
12.9907939589
 30
0.0
 10
17.7155435961
 20
12.9980488066
 30
0.0
 10
17.71710594
 20
13.0033477708
 30
0.0
 10
17.7179897629
 20
13.0069577657
 30
0.0
 10
17.7185785841
 20
13.0103858438
 30
0.0
 10
17.7187971174
 20
13.013688414
 30
0.0
 10
17.7185247455
 20
13.0169478916
 30
0.0
 10
17.7175587415
 20
13.0202727875
 30
0.0
 10
17.7155812442
 20
13.0238013882
 30
0.0
 10
17.7129517377
 20
13.0268005071
 30
0.0
 10
17.7100150038
 20
13.0294994605
 30
0.0
 10
17.7069481065
 20
13.031966893
 30
0.0
 10
17.7030672371
 20
13.0347664138
 30
0.0
 10
17.7001519362
 20
13.0366922353
 30
0.0
 10
17.6985441636
 20
13.0377205129
 30
0.0
  0
LINE
  5
41B
100
AcDbEntity
  8
03___PRT_ALL_CURVES
100
AcDbLine
 62
7
  6
BYLAYER
 10
17.9506736938
 20
12.2545600363
 11
17.9569801962
 21
12.2281149137
  0
SPLINE
  5
41C
100
AcDbEntity
  8
03___PRT_ALL_CURVES
100
AcDbSpline
 62
7
  6
BYLAYER
 70
0
 71
3
 72
49
 73
45
 74
0
 42
0.0000001
 43
0.0000001
 44
0.0000000001
 40
0.0
 40
0.0
 40
0.0
 40
0.0
 40
0.0625
 40
0.125
 40
0.15625
 40
0.171875
 40
0.1875
 40
0.21875
 40
0.25
 40
0.28125
 40
0.3125
 40
0.328125
 40
0.34375
 40
0.375
 40
0.40625
 40
0.4375
 40
0.46875
 40
0.484375
 40
0.4921875
 40
0.5
 40
0.5078125
 40
0.515625
 40
0.53125
 40
0.5625
 40
0.59375
 40
0.625
 40
0.640625
 40
0.65625
 40
0.6640625
 40
0.671875
 40
0.6875
 40
0.71875
 40
0.75
 40
0.78125
 40
0.8125
 40
0.8203125
 40
0.828125
 40
0.8359375
 40
0.84375
 40
0.859375
 40
0.875
 40
0.90625
 40
0.9375
 40
1.0
 40
1.0
 40
1.0
 40
1.0
 10
17.5566398948
 20
14.0392498623
 30
0.0
 10
17.554195663
 20
14.0391993835
 30
0.0
 10
17.5493076725
 20
14.0391003075
 30
0.0
 10
17.5431953182
 20
14.0389670555
 30
0.0
 10
17.538921018
 20
14.0388910642
 30
0.0
 10
17.5364718172
 20
14.0388208312
 30
0.0
 10
17.53399721
 20
14.0386495773
 30
0.0
 10
17.530912713
 20
14.0384704009
 30
0.0
 10
17.5272073689
 20
14.038239444
 30
0.0
 10
17.5235037967
 20
14.0380164425
 30
0.0
 10
17.5204148697
 20
14.0378173777
 30
0.0
 10
17.5179491224
 20
14.0376859008
 30
0.0
 10
17.5154638913
 20
14.0374539082
 30
0.0
 10
17.5123507485
 20
14.037129499
 30
0.0
 10
17.5086175059
 20
14.0367547633
 30
0.0
 10
17.5048847141
 20
14.036376876
 30
0.0
 10
17.5017704445
 20
14.0360603457
 30
0.0
 10
17.4995978391
 20
14.0358435642
 30
0.0
 10
17.498344776
 20
14.0357119653
 30
0.0
 10
17.497437592
 20
14.0356350688
 30
0.0
 10
17.4964057422
 20
14.0354748238
 30
0.0
 10
17.495073429
 20
14.0352902358
 30
0.0
 10
17.4927216023
 20
14.0349536692
 30
0.0
 10
17.4893725924
 20
14.0344798777
 30
0.0
 10
17.4853485673
 20
14.0339085848
 30
0.0
 10
17.4819982672
 20
14.0334322937
 30
0.0
 10
17.4793133038
 20
14.0330531451
 30
0.0
 10
17.4776454828
 20
14.0328115735
 30
0.0
 10
17.4762877322
 20
14.0326288942
 30
0.0
 10
17.475015732
 20
14.0324075858
 30
0.0
 10
17.4728295763
 20
14.0320023515
 30
0.0
 10
17.4696856279
 20
14.0314328016
 30
0.0
 10
17.4659219867
 20
14.0307454479
 30
0.0
 10
17.4621553484
 20
14.0300586994
 30
0.0
 10
17.459332538
 20
14.0295447429
 30
0.0
 10
17.4574479872
 20
14.0292000746
 30
0.0
 10
17.4565103435
 20
14.0290314334
 30
0.0
 10
17.4555547082
 20
14.0288484267
 30
0.0
 10
17.4541949265
 20
14.0285360621
 30
0.0
 10
17.4525245091
 20
14.0281690112
 30
0.0
 10
17.4498354612
 20
14.0275686498
 30
0.0
 10
17.4464797624
 20
14.0268226785
 30
0.0
 10
17.4411074942
 20
14.0256266091
 30
0.0
 10
17.4370790018
 20
14.024730123
 30
0.0
 10
17.4343931828
 20
14.0241323398
 30
0.0
  0
SPLINE
  5
41D
100
AcDbEntity
  8
03___PRT_ALL_CURVES
100
AcDbSpline
 62
7
  6
BYLAYER
 70
0
 71
3
 72
107
 73
103
 74
0
 42
0.0000001
 43
0.0000001
 44
0.0000000001
 40
0.0
 40
0.0
 40
0.0
 40
0.0
 40
0.0625
 40
0.09375
 40
0.109375
 40
0.125
 40
0.140625
 40
0.1484375
 40
0.15625
 40
0.16015625
 40
0.1640625
 40
0.166015625
 40
0.1669921875
 40
0.16796875
 40
0.169921875
 40
0.171875
 40
0.1796875
 40
0.1875
 40
0.1953125
 40
0.203125
 40
0.21875
 40
0.25
 40
0.28125
 40
0.296875
 40
0.3046875
 40
0.3125
 40
0.3203125
 40
0.328125
 40
0.330078125
 40
0.33203125
 40
0.3330078125
 40
0.333984375
 40
0.3359375
 40
0.33984375
 40
0.34375
 40
0.3515625
 40
0.359375
 40
0.375
 40
0.390625
 40
0.40625
 40
0.421875
 40
0.4375
 40
0.453125
 40
0.46875
 40
0.4765625
 40
0.484375
 40
0.48828125
 40
0.4921875
 40
0.49609375
 40
0.498046875
 40
0.4990234375
 40
0.5
 40
0.5009765625
 40
0.501953125
 40
0.50390625
 40
0.5078125
 40
0.51171875
 40
0.515625
 40
0.5234375
 40
0.53125
 40
0.546875
 40
0.5625
 40
0.578125
 40
0.59375
 40
0.609375
 40
0.625
 40
0.640625
 40
0.6484375
 40
0.65625
 40
0.66015625
 40
0.6640625
 40
0.666015625
 40
0.6669921875
 40
0.66796875
 40
0.669921875
 40
0.671875
 40
0.6796875
 40
0.6875
 40
0.6953125
 40
0.703125
 40
0.71875
 40
0.75
 40
0.78125
 40
0.796875
 40
0.8046875
 40
0.8125
 40
0.8203125
 40
0.828125
 40
0.830078125
 40
0.83203125
 40
0.8330078125
 40
0.833984375
 40
0.8359375
 40
0.83984375
 40
0.84375
 40
0.8515625
 40
0.859375
 40
0.875
 40
0.890625
 40
0.90625
 40
0.9375
 40
1.0
 40
1.0
 40
1.0
 40
1.0
 10
17.4343931834
 20
14.02413234
 30
0.0
 10
17.4262106673
 20
14.0216143701
 30
0.0
 10
17.4139368942
 20
14.0178374108
 30
0.0
 10
17.3996174882
 20
14.0134309735
 30
0.0
 10
17.3914349764
 20
14.0109129877
 30
0.0
 10
17.3852980758
 20
14.0090245591
 30
0.0
 10
17.3801840452
 20
14.0074506751
 30
0.0
 10
17.3760927015
 20
14.0061920018
 30
0.0
 10
17.373535883
 20
14.0054043429
 30
0.0
 10
17.371489807
 20
14.0047764788
 30
0.0
 10
17.3702124269
 20
14.0043789003
 30
0.0
 10
17.3693154201
 20
14.0041109434
 30
0.0
 10
17.3688072894
 20
14.0039416348
 30
0.0
 10
17.3683158993
 20
14.0037113449
 30
0.0
 10
17.3676959397
 20
14.0034443262
 30
0.0
 10
17.3662127462
 20
14.0027863261
 30
0.0
 10
17.3639859779
 20
14.0018065312
 30
0.0
 10
17.361018084
 20
14.0004960199
 30
0.0
 10
17.3580498877
 20
13.9991866101
 30
0.0
 10
17.3540923981
 20
13.9974403461
 30
0.0
 10
17.3471667419
 20
13.9943845643
 30
0.0
 10
17.337272976
 20
13.9900190586
 30
0.0
 10
17.3273791895
 20
13.985653622
 30
0.0
 10
17.320453562
 20
13.9825977434
 30
0.0
 10
17.3164960273
 20
13.9808516315
 30
0.0
 10
17.3135279697
 20
13.9795417551
 30
0.0
 10
17.3105595548
 20
13.9782329965
 30
0.0
 10
17.3083342454
 20
13.9772482934
 30
0.0
 10
17.3068491479
 20
13.9765966989
 30
0.0
 10
17.3062326754
 20
13.9763179481
 30
0.0
 10
17.3057340897
 20
13.9761118674
 30
0.0
 10
17.3052552802
 20
13.9758439094
 30
0.0
 10
17.3044265519
 20
13.9753462331
 30
0.0
 10
17.3032378603
 20
13.9746502671
 30
0.0
 10
17.3013386329
 20
13.9735283387
 30
0.0
 10
17.2989636814
 20
13.9721287985
 30
0.0
 10
17.2951642715
 20
13.96988793
 30
0.0
 10
17.2904148333
 20
13.9670873948
 30
0.0
 10
17.2847155829
 20
13.9637265166
 30
0.0
 10
17.2790163121
 20
13.9603657017
 30
0.0
 10
17.2733170473
 20
13.9570048695
 30
0.0
 10
17.2676177792
 20
13.9536440433
 30
0.0
 10
17.261918518
 20
13.9502832105
 30
0.0
 10
17.2571691135
 20
13.9474825333
 30
0.0
 10
17.2533696349
 20
13.9452419546
 30
0.0
 10
17.2509948583
 20
13.9438416768
 30
0.0
 10
17.2490952717
 20
13.9427212624
 30
0.0
 10
17.247669939
 20
13.941881478
 30
0.0
 10
17.2464842068
 20
13.9411799829
 30
0.0
 10
17.2456501808
 20
13.9406922231
 30
0.0
 10
17.2451798612
 20
13.9404083711
 30
0.0
 10
17.2448094681
 20
13.9402099394
 30
0.0
 10
17.2445065553
 20
13.9399562446
 30
0.0
 10
17.2440791337
 20
13.9396372613
 30
0.0
 10
17.2433421127
 20
13.9390700594
 30
0.0
 10
17.242283492
 20
13.9382644663
 30
0.0
 10
17.2410156012
 20
13.9372957448
 30
0.0
 10
17.2393242231
 20
13.9360048182
 30
0.0
 10
17.2372102938
 20
13.9343909195
 30
0.0
 10
17.2338278431
 20
13.931808816
 30
0.0
 10
17.2295998359
 20
13.9285811404
 30
0.0
 10
17.224526203
 20
13.9247079497
 30
0.0
 10
17.2194525775
 20
13.9208347529
 30
0.0
 10
17.2143789464
 20
13.9169615605
 30
0.0
 10
17.2093053303
 20
13.9130883567
 30
0.0
 10
17.2042316602
 20
13.9092151938
 30
0.0
 10
17.200003769
 20
13.9059874314
 30
0.0
 10
17.1966210817
 20
13.903405505
 30
0.0
 10
17.1945077545
 20
13.9017911556
 30
0.0
 10
17.1928151405
 20
13.9005011541
 30
0.0
 10
17.1917617114
 20
13.8996915308
 30
0.0
 10
17.1910153832
 20
13.8991315531
 30
0.0
 10
17.1906028784
 20
13.8988009915
 30
0.0
 10
17.1902429854
 20
13.8984306017
 30
0.0
 10
17.1897751362
 20
13.897981228
 30
0.0
 10
17.1886670989
 20
13.8968915265
 30
0.0
 10
17.1869988264
 20
13.8952616802
 30
0.0
 10
17.1847780162
 20
13.8930858621
 30
0.0
 10
17.1825562556
 20
13.8909107636
 30
0.0
 10
17.1795942397
 20
13.8880103811
 30
0.0
 10
17.1744105564
 20
13.8829348295
 30
0.0
 10
17.1670053838
 20
13.8756839742
 30
0.0
 10
17.1596001501
 20
13.8684331637
 30
0.0
 10
17.1544165523
 20
13.8633575494
 30
0.0
 10
17.1514544021
 20
13.8604572655
 30
0.0
 10
17.1492330535
 20
13.8582818644
 30
0.0
 10
17.1470106959
 20
13.8561071826
 30
0.0
 10
17.1453467566
 20
13.8544741545
 30
0.0
 10
17.1442330642
 20
13.8533886055
 30
0.0
 10
17.1437755724
 20
13.8529316262
 30
0.0
 10
17.1433943069
 20
13.8525769305
 30
0.0
 10
17.1430688925
 20
13.8521824177
 30
0.0
 10
17.1425253671
 20
13.8514735204
 30
0.0
 10
17.1417353629
 20
13.8504704622
 30
0.0
 10
17.1404789226
 20
13.848860175
 30
0.0
 10
17.1389057816
 20
13.846849163
 30
0.0
 10
17.1363902038
 20
13.8436305114
 30
0.0
 10
17.1332452349
 20
13.8396075511
 30
0.0
 10
17.1294714848
 20
13.8347798472
 30
0.0
 10
17.1244397438
 20
13.8283429615
 30
0.0
 10
17.1156342318
 20
13.8170783867
 30
0.0
 10
17.1080866381
 20
13.8074230455
 30
0.0
 10
17.1030549117
 20
13.8009861494
 30
0.0
  0
SPLINE
  5
41E
100
AcDbEntity
  8
03___PRT_ALL_CURVES
100
AcDbSpline
 62
7
  6
BYLAYER
 70
0
 71
3
 72
95
 73
91
 74
0
 42
0.0000001
 43
0.0000001
 44
0.0000000001
 40
0.0
 40
0.0
 40
0.0
 40
0.0
 40
0.0625
 40
0.09375
 40
0.109375
 40
0.125
 40
0.140625
 40
0.1484375
 40
0.15625
 40
0.16015625
 40
0.1640625
 40
0.166015625
 40
0.16796875
 40
0.171875
 40
0.1796875
 40
0.1875
 40
0.203125
 40
0.21875
 40
0.25
 40
0.28125
 40
0.296875
 40
0.3125
 40
0.3203125
 40
0.328125
 40
0.33203125
 40
0.333984375
 40
0.3359375
 40
0.33984375
 40
0.34375
 40
0.3515625
 40
0.359375
 40
0.375
 40
0.390625
 40
0.40625
 40
0.421875
 40
0.4375
 40
0.453125
 40
0.46875
 40
0.4765625
 40
0.484375
 40
0.4921875
 40
0.49609375
 40
0.498046875
 40
0.5
 40
0.501953125
 40
0.50390625
 40
0.5078125
 40
0.515625
 40
0.5234375
 40
0.53125
 40
0.546875
 40
0.5625
 40
0.578125
 40
0.59375
 40
0.609375
 40
0.625
 40
0.640625
 40
0.6484375
 40
0.65625
 40
0.66015625
 40
0.6640625
 40
0.666015625
 40
0.66796875
 40
0.669921875
 40
0.671875
 40
0.6796875
 40
0.6875
 40
0.6953125
 40
0.703125
 40
0.71875
 40
0.75
 40
0.78125
 40
0.796875
 40
0.8046875
 40
0.8125
 40
0.8203125
 40
0.828125
 40
0.830078125
 40
0.83203125
 40
0.833984375
 40
0.8359375
 40
0.83984375
 40
0.84375
 40
0.8515625
 40
0.859375
 40
0.875
 40
0.890625
 40
0.90625
 40
0.9375
 40
1.0
 40
1.0
 40
1.0
 40
1.0
 10
17.1030549128
 20
13.800986151
 30
0.0
 10
17.0999178153
 20
13.7956797078
 30
0.0
 10
17.0952121787
 20
13.7877200413
 30
0.0
 10
17.0897222352
 20
13.7784337691
 30
0.0
 10
17.0865851736
 20
13.7731273203
 30
0.0
 10
17.0842322401
 20
13.7691475048
 30
0.0
 10
17.0822718993
 20
13.7658309247
 30
0.0
 10
17.0807026464
 20
13.7631778113
 30
0.0
 10
17.0797240953
 20
13.7615192722
 30
0.0
 10
17.0789361429
 20
13.760193227
 30
0.0
 10
17.0784553354
 20
13.7593626552
 30
0.0
 10
17.0780439767
 20
13.7587023058
 30
0.0
 10
17.0777301387
 20
13.7580269591
 30
0.0
 10
17.0772262247
 20
13.7568381354
 30
0.0
 10
17.076482711
 20
13.7551434508
 30
0.0
 10
17.0753062986
 20
13.752429924
 30
0.0
 10
17.0738312582
 20
13.7490387116
 30
0.0
 10
17.071473734
 20
13.7436123801
 30
0.0
 10
17.0685258751
 20
13.7368296183
 30
0.0
 10
17.0655786551
 20
13.7300467358
 30
0.0
 10
17.0632201087
 20
13.7246205975
 30
0.0
 10
17.0617476237
 20
13.721228902
 30
0.0
 10
17.0605659727
 20
13.7185163653
 30
0.0
 10
17.0598357952
 20
13.7168191603
 30
0.0
 10
17.0593079279
 20
13.7156348637
 30
0.0
 10
17.0590324856
 20
13.7149522603
 30
0.0
 10
17.0588557276
 20
13.7142475726
 30
0.0
 10
17.0586009907
 20
13.7133742745
 30
0.0
 10
17.0582122948
 20
13.7119727719
 30
0.0
 10
17.0577199593
 20
13.7102223404
 30
0.0
 10
17.0569358362
 20
13.7074208415
 30
0.0
 10
17.0559544423
 20
13.7039192452
 30
0.0
 10
17.0547773015
 20
13.6997172109
 30
0.0
 10
17.0536000169
 20
13.6955152081
 30
0.0
 10
17.0524227757
 20
13.691313198
 30
0.0
 10
17.0512455048
 20
13.6871111855
 30
0.0
 10
17.0500683093
 20
13.6829091896
 30
0.0
 10
17.0490870864
 20
13.6794074733
 30
0.0
 10
17.0483026143
 20
13.6766062194
 30
0.0
 10
17.0477128775
 20
13.6745049531
 30
0.0
 10
17.0472258285
 20
13.6727549344
 30
0.0
 10
17.0468762626
 20
13.6715278873
 30
0.0
 10
17.0466899881
 20
13.6708298934
 30
0.0
 10
17.0465123162
 20
13.6702974514
 30
0.0
 10
17.0464797695
 20
13.669799208
 30
0.0
 10
17.0463857526
 20
13.6691229546
 30
0.0
 10
17.0462448084
 20
13.667945069
 30
0.0
 10
17.0460311288
 20
13.6662594697
 30
0.0
 10
17.0457799912
 20
13.6642379942
 30
0.0
 10
17.0454432975
 20
13.6615422591
 30
0.0
 10
17.0450230631
 20
13.6581727392
 30
0.0
 10
17.0445185099
 20
13.6541292515
 30
0.0
 10
17.0440140323
 20
13.650085781
 30
0.0
 10
17.0435095241
 20
13.6460423057
 30
0.0
 10
17.0430050624
 20
13.6419988323
 30
0.0
 10
17.0425004456
 20
13.637955356
 30
0.0
 10
17.0420804098
 20
13.6345858007
 30
0.0
 10
17.0417433109
 20
13.6318901379
 30
0.0
 10
17.0415350608
 20
13.6302053909
 30
0.0
 10
17.0413628802
 20
13.6288574966
 30
0.0
 10
17.0412680001
 20
13.6280152832
 30
0.0
 10
17.0411629326
 20
13.6273410073
 30
0.0
 10
17.0411639825
 20
13.6268366838
 30
0.0
 10
17.0411874081
 20
13.6263327479
 30
0.0
 10
17.0412227492
 20
13.6253246767
 30
0.0
 10
17.0412805952
 20
13.6238126537
 30
0.0
 10
17.0413549602
 20
13.6217965752
 30
0.0
 10
17.0414300642
 20
13.6197805095
 30
0.0
 10
17.041529945
 20
13.6170924174
 30
0.0
 10
17.0417048574
 20
13.6123882585
 30
0.0
 10
17.0419546629
 20
13.6056680287
 30
0.0
 10
17.0422045152
 20
13.598947806
 30
0.0
 10
17.0423793621
 20
13.594243637
 30
0.0
 10
17.0424793458
 20
13.5915555607
 30
0.0
 10
17.0425541342
 20
13.5895394466
 30
0.0
 10
17.0426296842
 20
13.58752355
 30
0.0
 10
17.0426842117
 20
13.5860110175
 30
0.0
 10
17.0427238837
 20
13.5850036113
 30
0.0
 10
17.0427377906
 20
13.5844982141
 30
0.0
 10
17.04277475
 20
13.5839994033
 30
0.0
 10
17.0429337169
 20
13.5833656618
 30
0.0
 10
17.0430948687
 20
13.5825627544
 30
0.0
 10
17.0433737001
 20
13.5812840992
 30
0.0
 10
17.0437150529
 20
13.5796837269
 30
0.0
 10
17.0442652339
 20
13.5771242788
 30
0.0
 10
17.044951582
 20
13.573924575
 30
0.0
 10
17.0457757896
 20
13.5700850989
 30
0.0
 10
17.0468745273
 20
13.5649657387
 30
0.0
 10
17.0487974147
 20
13.5560068858
 30
0.0
 10
17.0504455708
 20
13.5483278597
 30
0.0
 10
17.0515443489
 20
13.543208511
 30
0.0
  0
SPLINE
  5
41F
100
AcDbEntity
  8
03___PRT_ALL_CURVES
100
AcDbSpline
 62
7
  6
BYLAYER
 70
0
 71
3
 72
40
 73
36
 74
0
 42
0.0000001
 43
0.0000001
 44
0.0000000001
 40
0.0
 40
0.0
 40
0.0
 40
0.0
 40
0.0625
 40
0.125
 40
0.140625
 40
0.15625
 40
0.1640625
 40
0.171875
 40
0.1875
 40
0.21875
 40
0.25
 40
0.3125
 40
0.375
 40
0.4375
 40
0.5
 40
0.5625
 40
0.625
 40
0.640625
 40
0.65625
 40
0.6640625
 40
0.671875
 40
0.6875
 40
0.71875
 40
0.75
 40
0.78125
 40
0.8125
 40
0.8203125
 40
0.828125
 40
0.8359375
 40
0.84375
 40
0.859375
 40
0.875
 40
0.90625
 40
0.9375
 40
1.0
 40
1.0
 40
1.0
 40
1.0
 10
17.0515443478
 20
13.5432085146
 30
0.0
 10
17.0517550133
 20
13.5425588019
 30
0.0
 10
17.0521759677
 20
13.5412601142
 30
0.0
 10
17.0526512366
 20
13.5397957711
 30
0.0
 10
17.0529656104
 20
13.5388243832
 30
0.0
 10
17.0531002487
 20
13.5384124922
 30
0.0
 10
17.0531994484
 20
13.5380996459
 30
0.0
 10
17.0533297727
 20
13.5377258503
 30
0.0
 10
17.0535723452
 20
13.5370434082
 30
0.0
 10
17.0539109889
 20
13.5360831199
 30
0.0
 10
17.0544590992
 20
13.53453928
 30
0.0
 10
17.055128688
 20
13.5326063035
 30
0.0
 10
17.0559974095
 20
13.5303130472
 30
0.0
 10
17.0568911576
 20
13.528030908
 30
0.0
 10
17.0577500883
 20
13.5257336327
 30
0.0
 10
17.0587232621
 20
13.5234857846
 30
0.0
 10
17.0594284155
 20
13.5217926903
 30
0.0
 10
17.0599040283
 20
13.5206605285
 30
0.0
 10
17.0600998847
 20
13.5201965171
 30
0.0
 10
17.0602615763
 20
13.5198071167
 30
0.0
 10
17.0604050946
 20
13.5194843033
 30
0.0
 10
17.06064781
 20
13.5189503304
 30
0.0
 10
17.0609989823
 20
13.5181712914
 30
0.0
 10
17.0614183915
 20
13.5172435595
 30
0.0
 10
17.0618386935
 20
13.5163133206
 30
0.0
 10
17.0621527395
 20
13.5156178263
 30
0.0
 10
17.0623637921
 20
13.5151513054
 30
0.0
 10
17.0624663346
 20
13.5149230328
 30
0.0
 10
17.0625804747
 20
13.5146753804
 30
0.0
 10
17.0627878435
 20
13.5142529695
 30
0.0
 10
17.0630281603
 20
13.5137565276
 30
0.0
 10
17.0634232264
 20
13.5129445765
 30
0.0
 10
17.063913442
 20
13.5119356816
 30
0.0
 10
17.0646998176
 20
13.5103180567
 30
0.0
 10
17.0652891424
 20
13.5091056014
 30
0.0
 10
17.0656821271
 20
13.5082971282
 30
0.0
  0
SPLINE
  5
420
100
AcDbEntity
  8
03___PRT_ALL_CURVES
100
AcDbSpline
 62
7
  6
BYLAYER
 70
0
 71
3
 72
90
 73
86
 74
0
 42
0.0000001
 43
0.0000001
 44
0.0000000001
 40
0.0
 40
0.0
 40
0.0
 40
0.0
 40
0.0625
 40
0.09375
 40
0.109375
 40
0.125
 40
0.140625
 40
0.1484375
 40
0.15625
 40
0.16015625
 40
0.1640625
 40
0.166015625
 40
0.16796875
 40
0.171875
 40
0.1796875
 40
0.1875
 40
0.203125
 40
0.21875
 40
0.25
 40
0.28125
 40
0.296875
 40
0.3125
 40
0.3203125
 40
0.328125
 40
0.33203125
 40
0.333984375
 40
0.3359375
 40
0.33984375
 40
0.34375
 40
0.3515625
 40
0.359375
 40
0.375
 40
0.390625
 40
0.40625
 40
0.421875
 40
0.4375
 40
0.453125
 40
0.46875
 40
0.4765625
 40
0.484375
 40
0.4921875
 40
0.49609375
 40
0.498046875
 40
0.5
 40
0.501953125
 40
0.50390625
 40
0.5078125
 40
0.515625
 40
0.5234375
 40
0.53125
 40
0.546875
 40
0.5625
 40
0.578125
 40
0.59375
 40
0.609375
 40
0.625
 40
0.640625
 40
0.6484375
 40
0.65625
 40
0.66015625
 40
0.6640625
 40
0.666015625
 40
0.66796875
 40
0.671875
 40
0.6796875
 40
0.6875
 40
0.703125
 40
0.71875
 40
0.75
 40
0.78125
 40
0.796875
 40
0.8125
 40
0.8203125
 40
0.828125
 40
0.83203125
 40
0.833984375
 40
0.8359375
 40
0.83984375
 40
0.84375
 40
0.859375
 40
0.875
 40
0.890625
 40
0.90625
 40
0.9375
 40
1.0
 40
1.0
 40
1.0
 40
1.0
 10
17.0658589417
 20
13.5079484556
 30
0.0
 10
17.0680469476
 20
13.5043398916
 30
0.0
 10
17.0713289645
 20
13.4989270484
 30
0.0
 10
17.0751579562
 20
13.4926120548
 30
0.0
 10
17.0773459914
 20
13.4890035011
 30
0.0
 10
17.0789869058
 20
13.4862970464
 30
0.0
 10
17.0803546912
 20
13.4840417933
 30
0.0
 10
17.0814481195
 20
13.4822373084
 30
0.0
 10
17.0821333337
 20
13.4811101483
 30
0.0
 10
17.0826773335
 20
13.4802069479
 30
0.0
 10
17.0830268516
 20
13.479645807
 30
0.0
 10
17.0832846652
 20
13.4791891998
 30
0.0
 10
17.0836220678
 20
13.4787606831
 30
0.0
 10
17.084249495
 20
13.4780238281
 30
0.0
 10
17.085126529
 20
13.4769643696
 30
0.0
 10
17.0865405641
 20
13.4752730411
 30
0.0
 10
17.0883044154
 20
13.4731575766
 30
0.0
 10
17.091128649
 20
13.4697735678
 30
0.0
 10
17.0946581739
 20
13.4655432648
 30
0.0
 10
17.0981881778
 20
13.4613132115
 30
0.0
 10
17.1010116451
 20
13.4579288033
 30
0.0
 10
17.1027774122
 20
13.4558143372
 30
0.0
 10
17.1041875197
 20
13.4541209621
 30
0.0
 10
17.1050745523
 20
13.4530667136
 30
0.0
 10
17.105684021
 20
13.4523205009
 30
0.0
 10
17.1060502097
 20
13.4519069839
 30
0.0
 10
17.1064839088
 20
13.4515420266
 30
0.0
 10
17.1070029172
 20
13.4510692032
 30
0.0
 10
17.1078462485
 20
13.4503219776
 30
0.0
 10
17.1088959896
 20
13.449384764
 30
0.0
 10
17.1105780475
 20
13.4478870005
 30
0.0
 10
17.1126797715
 20
13.4460141858
 30
0.0
 10
17.1152022041
 20
13.4437670701
 30
0.0
 10
17.1177245387
 20
13.4415198835
 30
0.0
 10
17.1202469016
 20
13.4392727185
 30
0.0
 10
17.1227692494
 20
13.4370255377
 30
0.0
 10
17.1252916291
 20
13.4347783987
 30
0.0
 10
17.1273935186
 20
13.4329056568
 30
0.0
 10
17.1290752389
 20
13.4314077448
 30
0.0
 10
17.1303359592
 20
13.4302835419
 30
0.0
 10
17.1313883721
 20
13.4293491521
 30
0.0
 10
17.1321215038
 20
13.428690279
 30
0.0
 10
17.1325459908
 20
13.4283212752
 30
0.0
 10
17.1328487087
 20
13.4280234087
 30
0.0
 10
17.1332112385
 20
13.4278062493
 30
0.0
 10
17.1336737485
 20
13.4274885519
 30
0.0
 10
17.1344928615
 20
13.4269456979
 30
0.0
 10
17.1356579409
 20
13.4261633347
 30
0.0
 10
17.1370582115
 20
13.425227434
 30
0.0
 10
17.1389244791
 20
13.4239785412
 30
0.0
 10
17.1412575744
 20
13.422417777
 30
0.0
 10
17.1440571765
 20
13.4205447088
 30
0.0
 10
17.1468568105
 20
13.4186716824
 30
0.0
 10
17.1496564291
 20
13.4167986403
 30
0.0
 10
17.1524560772
 20
13.414925619
 30
0.0
 10
17.1552556229
 20
13.4130525302
 30
0.0
 10
17.1575888945
 20
13.4114918304
 30
0.0
 10
17.1594548025
 20
13.4102428062
 30
0.0
 10
17.1606226099
 20
13.4094632233
 30
0.0
 10
17.1615531572
 20
13.4088371358
 30
0.0
 10
17.1621431885
 20
13.4084513555
 30
0.0
 10
17.162595884
 20
13.408130078
 30
0.0
 10
17.1631191462
 20
13.4078549939
 30
0.0
 10
17.1640676363
 20
13.4073950557
 30
0.0
 10
17.1654055186
 20
13.4067268048
 30
0.0
 10
17.1675556886
 20
13.4056638606
 30
0.0
 10
17.1702401273
 20
13.4043330366
 30
0.0
 10
17.1745370649
 20
13.4022049234
 30
0.0
 10
17.1799075648
 20
13.3995443186
 30
0.0
 10
17.1852784582
 20
13.3968840605
 30
0.0
 10
17.1895747663
 20
13.3947553924
 30
0.0
 10
17.1922607788
 20
13.3934259556
 30
0.0
 10
17.1944077224
 20
13.3923601678
 30
0.0
 10
17.1957538183
 20
13.3916991557
 30
0.0
 10
17.1966875558
 20
13.3912262159
 30
0.0
 10
17.1972344655
 20
13.3909719724
 30
0.0
 10
17.1978316408
 20
13.3907780221
 30
0.0
 10
17.198560929
 20
13.3905149757
 30
0.0
 10
17.2003253613
 20
13.3899006262
 30
0.0
 10
17.2029660705
 20
13.3889719777
 30
0.0
 10
17.2064904107
 20
13.3877378515
 30
0.0
 10
17.2100138429
 20
13.3865026362
 30
0.0
 10
17.2147120692
 20
13.3848560624
 30
0.0
 10
17.2229338169
 20
13.3819743802
 30
0.0
 10
17.22998108
 20
13.3795044279
 30
0.0
 10
17.2346792442
 20
13.3778577795
 30
0.0
  0
SPLINE
  5
421
100
AcDbEntity
  8
03___PRT_ALL_CURVES
100
AcDbSpline
 62
7
  6
BYLAYER
 70
0
 71
3
 72
50
 73
46
 74
0
 42
0.0000001
 43
0.0000001
 44
0.0000000001
 40
0.0
 40
0.0
 40
0.0
 40
0.0
 40
0.0625
 40
0.125
 40
0.140625
 40
0.15625
 40
0.171875
 40
0.1875
 40
0.21875
 40
0.25
 40
0.28125
 40
0.3125
 40
0.328125
 40
0.34375
 40
0.375
 40
0.40625
 40
0.4375
 40
0.46875
 40
0.484375
 40
0.4921875
 40
0.5
 40
0.5078125
 40
0.515625
 40
0.53125
 40
0.5625
 40
0.59375
 40
0.625
 40
0.640625
 40
0.65625
 40
0.6640625
 40
0.671875
 40
0.6875
 40
0.71875
 40
0.75
 40
0.78125
 40
0.8125
 40
0.8203125
 40
0.828125
 40
0.8359375
 40
0.84375
 40
0.859375
 40
0.875
 40
0.90625
 40
0.9375
 40
1.0
 40
1.0
 40
1.0
 40
1.0
 10
17.2346792395
 20
13.3778577808
 30
0.0
 10
17.2368430947
 20
13.3772954238
 30
0.0
 10
17.2411710762
 20
13.3761711536
 30
0.0
 10
17.2460388356
 20
13.3749043527
 30
0.0
 10
17.2492857874
 20
13.374062731
 30
0.0
 10
17.250906112
 20
13.3736367612
 30
0.0
 10
17.2525386859
 20
13.3732308449
 30
0.0
 10
17.2547737824
 20
13.372785126
 30
0.0
 10
17.2575475143
 20
13.3721949835
 30
0.0
 10
17.2608851612
 20
13.3715019288
 30
0.0
 10
17.264218356
 20
13.370801199
 30
0.0
 10
17.2670032178
 20
13.3702302443
 30
0.0
 10
17.2692160547
 20
13.3697461498
 30
0.0
 10
17.2714833422
 20
13.3693609886
 30
0.0
 10
17.2743360375
 20
13.3689134314
 30
0.0
 10
17.2777516436
 20
13.3683619627
 30
0.0
 10
17.2811680253
 20
13.367813863
 30
0.0
 10
17.2840187816
 20
13.3673578835
 30
0.0
 10
17.2860060514
 20
13.3670356063
 30
0.0
 10
17.287154662
 20
13.3668565166
 30
0.0
 10
17.2879793963
 20
13.3667078766
 30
0.0
 10
17.2889445115
 20
13.3666139934
 30
0.0
 10
17.2901823642
 20
13.3664697171
 30
0.0
 10
17.2923714339
 20
13.36622612
 30
0.0
 10
17.2954866404
 20
13.3658735753
 30
0.0
 10
17.299230483
 20
13.3654520447
 30
0.0
 10
17.3023477508
 20
13.3651017577
 30
0.0
 10
17.30484501
 20
13.3648183942
 30
0.0
 10
17.306398485
 20
13.3646486324
 30
0.0
 10
17.3076579527
 20
13.3644959894
 30
0.0
 10
17.3088565191
 20
13.3644048086
 30
0.0
 10
17.3109257102
 20
13.3642737962
 30
0.0
 10
17.3138965355
 20
13.3640717241
 30
0.0
 10
17.3174549893
 20
13.3638355468
 30
0.0
 10
17.3210158485
 20
13.363597991
 30
0.0
 10
17.3236841793
 20
13.3634192279
 30
0.0
 10
17.3254661707
 20
13.363301477
 30
0.0
 10
17.3263517292
 20
13.3632399513
 30
0.0
 10
17.3272584157
 20
13.3631887417
 30
0.0
 10
17.3285678572
 20
13.3631695528
 30
0.0
 10
17.3301702391
 20
13.3631287582
 30
0.0
 10
17.332753286
 20
13.3630728804
 30
0.0
 10
17.3359755054
 20
13.3629998153
 30
0.0
 10
17.3411347556
 20
13.3628847177
 30
0.0
 10
17.345003361
 20
13.362797988
 30
0.0
 10
17.3475826162
 20
13.3627402585
 30
0.0
  0
SPLINE
  5
422
100
AcDbEntity
  8
03___PRT_ALL_CURVES
100
AcDbSpline
 62
7
  6
BYLAYER
 70
0
 71
3
 72
62
 73
58
 74
0
 42
0.0000001
 43
0.0000001
 44
0.0000000001
 40
0.0
 40
0.0
 40
0.0
 40
0.0
 40
0.0625
 40
0.09375
 40
0.125
 40
0.140625
 40
0.15625
 40
0.1640625
 40
0.16796875
 40
0.171875
 40
0.1796875
 40
0.1875
 40
0.21875
 40
0.25
 40
0.28125
 40
0.3125
 40
0.3203125
 40
0.328125
 40
0.33203125
 40
0.3359375
 40
0.34375
 40
0.359375
 40
0.375
 40
0.4375
 40
0.46875
 40
0.484375
 40
0.4921875
 40
0.5
 40
0.5078125
 40
0.515625
 40
0.53125
 40
0.546875
 40
0.5625
 40
0.59375
 40
0.625
 40
0.640625
 40
0.65625
 40
0.6640625
 40
0.66796875
 40
0.671875
 40
0.6796875
 40
0.6875
 40
0.71875
 40
0.75
 40
0.78125
 40
0.796875
 40
0.8125
 40
0.8203125
 40
0.828125
 40
0.83203125
 40
0.8359375
 40
0.84375
 40
0.859375
 40
0.875
 40
0.90625
 40
0.9375
 40
1.0
 40
1.0
 40
1.0
 40
1.0
 10
17.3475826155
 20
13.3627402585
 30
0.0
 10
17.3516119016
 20
13.3628764535
 30
0.0
 10
17.3576558592
 20
13.3630808788
 30
0.0
 10
17.3657143554
 20
13.3633529146
 30
0.0
 10
17.3707511528
 20
13.3635240437
 30
0.0
 10
17.3747800497
 20
13.3636584236
 30
0.0
 10
17.3772993442
 20
13.3637481661
 30
0.0
 10
17.3790603774
 20
13.3637994522
 30
0.0
 10
17.3800705513
 20
13.363846804
 30
0.0
 10
17.3810952988
 20
13.363962124
 30
0.0
 10
17.3823712519
 20
13.3640830417
 30
0.0
 10
17.3854376396
 20
13.3643923699
 30
0.0
 10
17.3900354914
 20
13.3648482651
 30
0.0
 10
17.3961669854
 20
13.3654610578
 30
0.0
 10
17.4022980699
 20
13.3660713946
 30
0.0
 10
17.4068968431
 20
13.3665328156
 30
0.0
 10
17.4099620536
 20
13.366835083
 30
0.0
 10
17.4112401606
 20
13.3669689197
 30
0.0
 10
17.4122604636
 20
13.3670575831
 30
0.0
 10
17.4132887484
 20
13.3672135571
 30
0.0
 10
17.4150919549
 20
13.3675177855
 30
0.0
 10
17.417666032
 20
13.3679360815
 30
0.0
 10
17.4238454138
 20
13.3689536602
 30
0.0
 10
17.4310540987
 20
13.3701336543
 30
0.0
 10
17.438263168
 20
13.3713232319
 30
0.0
 10
17.4418674824
 20
13.371907954
 30
0.0
 10
17.4439274133
 20
13.372257969
 30
0.0
 10
17.4454714561
 20
13.3724756924
 30
0.0
 10
17.4470189593
 20
13.3728646229
 30
0.0
 10
17.4490810881
 20
13.3733233917
 30
0.0
 10
17.4516591637
 20
13.3739173733
 30
0.0
 10
17.4547526776
 20
13.37462136
 30
0.0
 10
17.4588774214
 20
13.3755631184
 30
0.0
 10
17.4640333535
 20
13.3767389731
 30
0.0
 10
17.469189203
 20
13.3779163142
 30
0.0
 10
17.4733140791
 20
13.3788556943
 30
0.0
 10
17.4758916768
 20
13.3794482957
 30
0.0
 10
17.4776968968
 20
13.3798521354
 30
0.0
 10
17.4787270404
 20
13.3801000794
 30
0.0
 10
17.4797518704
 20
13.3804127251
 30
0.0
 10
17.4810347241
 20
13.380781417
 30
0.0
 10
17.4841120777
 20
13.381684478
 30
0.0
 10
17.4887287455
 20
13.3830314462
 30
0.0
 10
17.4948838932
 20
13.3848316607
 30
0.0
 10
17.5000134143
 20
13.3863312024
 30
0.0
 10
17.5041166808
 20
13.3875302362
 30
0.0
 10
17.5066819827
 20
13.3882814498
 30
0.0
 10
17.5087324869
 20
13.3888782085
 30
0.0
 10
17.5100180152
 20
13.3892608045
 30
0.0
 10
17.5110373604
 20
13.3895448421
 30
0.0
 10
17.5120898451
 20
13.3899093388
 30
0.0
 10
17.5139470881
 20
13.3905845849
 30
0.0
 10
17.5165922602
 20
13.3915297208
 30
0.0
 10
17.5208290243
 20
13.3930528367
 30
0.0
 10
17.5261234419
 20
13.3949529983
 30
0.0
 10
17.5345953732
 20
13.3979953528
 30
0.0
 10
17.5409491274
 20
13.400276647
 30
0.0
 10
17.5451850067
 20
13.4017976147
 30
0.0
  0
SPLINE
  5
423
100
AcDbEntity
  8
03___PRT_ALL_CURVES
100
AcDbSpline
 62
7
  6
BYLAYER
 70
0
 71
3
 72
75
 73
71
 74
0
 42
0.0000001
 43
0.0000001
 44
0.0000000001
 40
0.0
 40
0.0
 40
0.0
 40
0.0
 40
0.0625
 40
0.09375
 40
0.109375
 40
0.125
 40
0.140625
 40
0.15625
 40
0.16015625
 40
0.1640625
 40
0.16796875
 40
0.171875
 40
0.1796875
 40
0.1875
 40
0.203125
 40
0.21875
 40
0.25
 40
0.28125
 40
0.296875
 40
0.3125
 40
0.3203125
 40
0.328125
 40
0.33203125
 40
0.3359375
 40
0.33984375
 40
0.34375
 40
0.359375
 40
0.375
 40
0.390625
 40
0.40625
 40
0.4375
 40
0.453125
 40
0.46875
 40
0.484375
 40
0.4921875
 40
0.49609375
 40
0.5
 40
0.50390625
 40
0.5078125
 40
0.515625
 40
0.53125
 40
0.546875
 40
0.5625
 40
0.59375
 40
0.609375
 40
0.625
 40
0.640625
 40
0.65625
 40
0.6640625
 40
0.66796875
 40
0.671875
 40
0.6796875
 40
0.6875
 40
0.703125
 40
0.71875
 40
0.75
 40
0.78125
 40
0.796875
 40
0.8125
 40
0.8203125
 40
0.828125
 40
0.83203125
 40
0.8359375
 40
0.83984375
 40
0.84375
 40
0.859375
 40
0.875
 40
0.90625
 40
0.9375
 40
1.0
 40
1.0
 40
1.0
 40
1.0
 10
17.545185009
 20
13.4017976156
 30
0.0
 10
17.5500155363
 20
13.4039007913
 30
0.0
 10
17.5572613274
 20
13.4070555685
 30
0.0
 10
17.5657147497
 20
13.4107360943
 30
0.0
 10
17.5705452777
 20
13.4128393199
 30
0.0
 10
17.5741681709
 20
13.4144165485
 30
0.0
 10
17.5777910748
 20
13.4159945056
 30
0.0
 10
17.5805082229
 20
13.4171759309
 30
0.0
 10
17.5823197013
 20
13.4179667244
 30
0.0
 10
17.5832253577
 20
13.4183564486
 30
0.0
 10
17.584131336
 20
13.4187682276
 30
0.0
 10
17.5853408384
 20
13.4194222072
 30
0.0
 10
17.5868521921
 20
13.4202037501
 30
0.0
 10
17.5892706506
 20
13.4214742992
 30
0.0
 10
17.5922936261
 20
13.4230556084
 30
0.0
 10
17.5971304269
 20
13.4255895563
 30
0.0
 10
17.6031765184
 20
13.4287556014
 30
0.0
 10
17.6092221979
 20
13.4319223888
 30
0.0
 10
17.6140596578
 20
13.4344551489
 30
0.0
 10
17.6170809856
 20
13.4360394273
 30
0.0
 10
17.6195028218
 20
13.4373038895
 30
0.0
 10
17.6210055769
 20
13.4381009281
 30
0.0
 10
17.6222327295
 20
13.4387230997
 30
0.0
 10
17.623084784
 20
13.4392320565
 30
0.0
 10
17.6239176967
 20
13.4397528744
 30
0.0
 10
17.6255933688
 20
13.4407884089
 30
0.0
 10
17.6281027412
 20
13.442344273
 30
0.0
 10
17.6314509345
 20
13.4444172953
 30
0.0
 10
17.6347984969
 20
13.4464907037
 30
0.0
 10
17.6392621274
 20
13.4492551401
 30
0.0
 10
17.643725736
 20
13.4520194527
 30
0.0
 10
17.6481892496
 20
13.4547842179
 30
0.0
 10
17.6515371917
 20
13.4568565577
 30
0.0
 10
17.6543261599
 20
13.4585874326
 30
0.0
 10
17.656280369
 20
13.4597913424
 30
0.0
 10
17.657394044
 20
13.4604913178
 30
0.0
 10
17.6582377961
 20
13.4609824191
 30
0.0
 10
17.6590490728
 20
13.4616030281
 30
0.0
 10
17.6601421029
 20
13.4623853331
 30
0.0
 10
17.6620496276
 20
13.463775414
 30
0.0
 10
17.6647774229
 20
13.4657502396
 30
0.0
 10
17.6680495933
 20
13.4681247432
 30
0.0
 10
17.6724129137
 20
13.4712890884
 30
0.0
 10
17.6767760428
 20
13.4744539659
 30
0.0
 10
17.6811394257
 20
13.477618491
 30
0.0
 10
17.6844113928
 20
13.4799924095
 30
0.0
 10
17.6876855132
 20
13.4823644057
 30
0.0
 10
17.6904072444
 20
13.4843470398
 30
0.0
 10
17.6923255894
 20
13.4857231863
 30
0.0
 10
17.6934012833
 20
13.4865278172
 30
0.0
 10
17.6943997509
 20
13.4874012306
 30
0.0
 10
17.6956742776
 20
13.4884694464
 30
0.0
 10
17.6976987428
 20
13.4901917533
 30
0.0
 10
17.7002343866
 20
13.4923401287
 30
0.0
 10
17.7042885732
 20
13.4957800583
 30
0.0
 10
17.7093573839
 20
13.5000790359
 30
0.0
 10
17.7144254387
 20
13.5043785902
 30
0.0
 10
17.7184808348
 20
13.5078175969
 30
0.0
 10
17.7210134549
 20
13.5099682798
 30
0.0
 10
17.7230441187
 20
13.5116858564
 30
0.0
 10
17.7243028654
 20
13.5127661141
 30
0.0
 10
17.7253337244
 20
13.5136148091
 30
0.0
 10
17.7260415347
 20
13.5142938004
 30
0.0
 10
17.7267310373
 20
13.5149846924
 30
0.0
 10
17.7281194594
 20
13.5163603551
 30
0.0
 10
17.7301981478
 20
13.5184264134
 30
0.0
 10
17.7338965332
 20
13.5220974952
 30
0.0
 10
17.738518508
 20
13.526687002
 30
0.0
 10
17.7459142331
 20
13.5340298454
 30
0.0
 10
17.7514608997
 20
13.5395370606
 30
0.0
 10
17.7551587056
 20
13.543208519
 30
0.0
  0
SPLINE
  5
424
100
AcDbEntity
  8
03___PRT_ALL_CURVES
100
AcDbSpline
 62
7
  6
BYLAYER
 70
0
 71
3
 72
93
 73
89
 74
0
 42
0.0000001
 43
0.0000001
 44
0.0000000001
 40
0.0
 40
0.0
 40
0.0
 40
0.0
 40
0.0625
 40
0.09375
 40
0.109375
 40
0.125
 40
0.140625
 40
0.1484375
 40
0.15625
 40
0.16015625
 40
0.1640625
 40
0.166015625
 40
0.16796875
 40
0.171875
 40
0.1796875
 40
0.1875
 40
0.203125
 40
0.21875
 40
0.25
 40
0.28125
 40
0.296875
 40
0.3125
 40
0.3203125
 40
0.328125
 40
0.33203125
 40
0.333984375
 40
0.3359375
 40
0.33984375
 40
0.34375
 40
0.3515625
 40
0.359375
 40
0.375
 40
0.390625
 40
0.40625
 40
0.421875
 40
0.4375
 40
0.453125
 40
0.46875
 40
0.4765625
 40
0.484375
 40
0.4921875
 40
0.49609375
 40
0.498046875
 40
0.5
 40
0.501953125
 40
0.50390625
 40
0.5078125
 40
0.515625
 40
0.5234375
 40
0.53125
 40
0.546875
 40
0.5625
 40
0.578125
 40
0.59375
 40
0.609375
 40
0.625
 40
0.640625
 40
0.6484375
 40
0.65625
 40
0.66015625
 40
0.6640625
 40
0.666015625
 40
0.66796875
 40
0.671875
 40
0.6796875
 40
0.6875
 40
0.703125
 40
0.71875
 40
0.75
 40
0.78125
 40
0.796875
 40
0.8046875
 40
0.8125
 40
0.8203125
 40
0.828125
 40
0.830078125
 40
0.83203125
 40
0.833984375
 40
0.8359375
 40
0.83984375
 40
0.84375
 40
0.8515625
 40
0.859375
 40
0.875
 40
0.890625
 40
0.90625
 40
0.9375
 40
1.0
 40
1.0
 40
1.0
 40
1.0
 10
17.7551587015
 20
13.5432085146
 30
0.0
 10
17.7593186804
 20
13.5481897174
 30
0.0
 10
17.76555864
 20
13.5556615246
 30
0.0
 10
17.7728386236
 20
13.5643786223
 30
0.0
 10
17.7769985702
 20
13.5693598364
 30
0.0
 10
17.7801186535
 20
13.5730957038
 30
0.0
 10
17.7827183301
 20
13.5762090643
 30
0.0
 10
17.7847989524
 20
13.5786994438
 30
0.0
 10
17.7860973352
 20
13.5802566345
 30
0.0
 10
17.7871406361
 20
13.5815007758
 30
0.0
 10
17.7877822154
 20
13.5822820404
 30
0.0
 10
17.7883194911
 20
13.5828986319
 30
0.0
 10
17.7887691051
 20
13.583545963
 30
0.0
 10
17.789515207
 20
13.5846930721
 30
0.0
 10
17.7906023139
 20
13.586324349
 30
0.0
 10
17.7923298109
 20
13.5889385559
 30
0.0
 10
17.7944932495
 20
13.592204888
 30
0.0
 10
17.797952468
 20
13.597431821
 30
0.0
 10
17.8022773469
 20
13.6039651807
 30
0.0
 10
17.8066016567
 20
13.6104987649
 30
0.0
 10
17.8100617856
 20
13.6157253386
 30
0.0
 10
17.812222948
 20
13.618992569
 30
0.0
 10
17.8139551113
 20
13.6216049343
 30
0.0
 10
17.8150303389
 20
13.6232408992
 30
0.0
 10
17.8157977774
 20
13.6243795883
 30
0.0
 10
17.8162131904
 20
13.6250404162
 30
0.0
 10
17.8165414948
 20
13.6257394748
 30
0.0
 10
17.8169817012
 20
13.626600208
 30
0.0
 10
17.8176693634
 20
13.6279846964
 30
0.0
 10
17.8185346483
 20
13.6297128022
 30
0.0
 10
17.8199159144
 20
13.6324791713
 30
0.0
 10
17.8216435917
 20
13.6359366524
 30
0.0
 10
17.8237163347
 20
13.6400858356
 30
0.0
 10
17.8257892049
 20
13.6442349637
 30
0.0
 10
17.8278620362
 20
13.6483841061
 30
0.0
 10
17.8299348958
 20
13.6525332463
 30
0.0
 10
17.8320076811
 20
13.6566823812
 30
0.0
 10
17.8337352263
 20
13.660140013
 30
0.0
 10
17.8351167617
 20
13.6629060747
 30
0.0
 10
17.836154281
 20
13.6649807404
 30
0.0
 10
17.8370145301
 20
13.6667092485
 30
0.0
 10
17.8376252416
 20
13.66791995
 30
0.0
 10
17.8379608897
 20
13.6686106148
 30
0.0
 10
17.8382501761
 20
13.6691318942
 30
0.0
 10
17.8383959264
 20
13.6696406329
 30
0.0
 10
17.8386403271
 20
13.6703233255
 30
0.0
 10
17.8390447011
 20
13.6715159995
 30
0.0
 10
17.839634574
 20
13.673220885
 30
0.0
 10
17.8403372014
 20
13.6752662915
 30
0.0
 10
17.8412758613
 20
13.6779936595
 30
0.0
 10
17.8424485604
 20
13.6814028148
 30
0.0
 10
17.8438560682
 20
13.6854938246
 30
0.0
 10
17.8452635014
 20
13.6895848285
 30
0.0
 10
17.8466709644
 20
13.6936758325
 30
0.0
 10
17.8480783827
 20
13.6977668419
 30
0.0
 10
17.8494859502
 20
13.7018578295
 30
0.0
 10
17.8506584628
 20
13.7052670539
 30
0.0
 10
17.8515975032
 20
13.7079942811
 30
0.0
 10
17.8521820576
 20
13.7096991449
 30
0.0
 10
17.8526550737
 20
13.7110622417
 30
0.0
 10
17.8529384501
 20
13.7119159894
 30
0.0
 10
17.8531932289
 20
13.7125948367
 30
0.0
 10
17.8533455039
 20
13.7132888377
 30
0.0
 10
17.8535643677
 20
13.7145103788
 30
0.0
 10
17.8539018746
 20
13.7162517647
 30
0.0
 10
17.8544280014
 20
13.7190400346
 30
0.0
 10
17.8550904141
 20
13.7225246693
 30
0.0
 10
17.8561476162
 20
13.7281004775
 30
0.0
 10
17.857470039
 20
13.7350701034
 30
0.0
 10
17.8587921038
 20
13.7420397755
 30
0.0
 10
17.8597176568
 20
13.7469185431
 30
0.0
 10
17.8602464672
 20
13.7497064014
 30
0.0
 10
17.8606432752
 20
13.7517973225
 30
0.0
 10
17.861039321
 20
13.7538881386
 30
0.0
 10
17.8613384918
 20
13.7554565453
 30
0.0
 10
17.8615346164
 20
13.7565016915
 30
0.0
 10
17.8616386117
 20
13.757025083
 30
0.0
 10
17.8617195397
 20
13.7575452923
 30
0.0
 10
17.8617176857
 20
13.7582237628
 30
0.0
 10
17.8617529492
 20
13.7590770355
 30
0.0
 10
17.8617883687
 20
13.7604393744
 30
0.0
 10
17.8618398342
 20
13.76214329
 30
0.0
 10
17.8619181599
 20
13.7648690007
 30
0.0
 10
17.862017446
 20
13.7682763292
 30
0.0
 10
17.8621359992
 20
13.772365042
 30
0.0
 10
17.8622942759
 20
13.7778166874
 30
0.0
 10
17.8625711637
 20
13.7873570537
 30
0.0
 10
17.8628085292
 20
13.795534515
 30
0.0
 10
17.8629667655
 20
13.8009861549
 30
0.0
  0
SPLINE
  5
425
100
AcDbEntity
  8
03___PRT_ALL_CURVES
100
AcDbSpline
 62
7
  6
BYLAYER
 70
0
 71
3
 72
99
 73
95
 74
0
 42
0.0000001
 43
0.0000001
 44
0.0000000001
 40
0.0
 40
0.0
 40
0.0
 40
0.0
 40
0.0625
 40
0.09375
 40
0.109375
 40
0.125
 40
0.140625
 40
0.1484375
 40
0.15625
 40
0.16015625
 40
0.1640625
 40
0.166015625
 40
0.16796875
 40
0.169921875
 40
0.171875
 40
0.1796875
 40
0.1875
 40
0.1953125
 40
0.203125
 40
0.21875
 40
0.25
 40
0.28125
 40
0.296875
 40
0.3046875
 40
0.3125
 40
0.3203125
 40
0.328125
 40
0.330078125
 40
0.33203125
 40
0.333984375
 40
0.3359375
 40
0.33984375
 40
0.34375
 40
0.3515625
 40
0.359375
 40
0.375
 40
0.390625
 40
0.40625
 40
0.421875
 40
0.4375
 40
0.453125
 40
0.46875
 40
0.4765625
 40
0.484375
 40
0.4921875
 40
0.49609375
 40
0.498046875
 40
0.5
 40
0.501953125
 40
0.50390625
 40
0.5078125
 40
0.515625
 40
0.5234375
 40
0.53125
 40
0.546875
 40
0.5625
 40
0.578125
 40
0.59375
 40
0.609375
 40
0.625
 40
0.640625
 40
0.6484375
 40
0.65625
 40
0.66015625
 40
0.6640625
 40
0.666015625
 40
0.66796875
 40
0.669921875
 40
0.671875
 40
0.6796875
 40
0.6875
 40
0.6953125
 40
0.703125
 40
0.71875
 40
0.75
 40
0.78125
 40
0.796875
 40
0.8046875
 40
0.8125
 40
0.8203125
 40
0.828125
 40
0.830078125
 40
0.83203125
 40
0.833984375
 40
0.8359375
 40
0.83984375
 40
0.84375
 40
0.8515625
 40
0.859375
 40
0.875
 40
0.890625
 40
0.90625
 40
0.9375
 40
1.0
 40
1.0
 40
1.0
 40
1.0
 10
17.8629667657
 20
13.800986151
 30
0.0
 10
17.8622538109
 20
13.8060843919
 30
0.0
 10
17.8611843678
 20
13.8137317512
 30
0.0
 10
17.8599367226
 20
13.8226536776
 30
0.0
 10
17.8592237276
 20
13.8277519109
 30
0.0
 10
17.8586891353
 20
13.8315756148
 30
0.0
 10
17.8582431512
 20
13.8347619427
 30
0.0
 10
17.8578874642
 20
13.8373112113
 30
0.0
 10
17.8576626543
 20
13.8389040347
 30
0.0
 10
17.8574885445
 20
13.8401793685
 30
0.0
 10
17.8573666334
 20
13.8409739992
 30
0.0
 10
17.857299092
 20
13.841615322
 30
0.0
 10
17.8571663291
 20
13.842080931
 30
0.0
 10
17.8570105583
 20
13.8425422293
 30
0.0
 10
17.8567108521
 20
13.8434670433
 30
0.0
 10
17.8562563217
 20
13.844853333
 30
0.0
 10
17.8556531225
 20
13.8467022516
 30
0.0
 10
17.8550491633
 20
13.8485510279
 30
0.0
 10
17.8542441494
 20
13.8510161125
 30
0.0
 10
17.852835251
 20
13.8553299871
 30
0.0
 10
17.8508226093
 20
13.8614926807
 30
0.0
 10
17.8488099231
 20
13.8676553565
 30
0.0
 10
17.8474010869
 20
13.8719692561
 30
0.0
 10
17.8465959754
 20
13.8744343014
 30
0.0
 10
17.8459923159
 20
13.8762831983
 30
0.0
 10
17.8453879908
 20
13.8781316637
 30
0.0
 10
17.8449366132
 20
13.8795192225
 30
0.0
 10
17.8446327925
 20
13.8804423803
 30
0.0
 10
17.8444860647
 20
13.8809073188
 30
0.0
 10
17.8443191871
 20
13.8813591952
 30
0.0
 10
17.8440008073
 20
13.8818995453
 30
0.0
 10
17.8436356605
 20
13.8825962637
 30
0.0
 10
17.8430330799
 20
13.8836991205
 30
0.0
 10
17.8422861356
 20
13.8850817634
 30
0.0
 10
17.8410875141
 20
13.8872917163
 30
0.0
 10
17.8395904419
 20
13.8900549384
 30
0.0
 10
17.8377934384
 20
13.89337047
 30
0.0
 10
17.8359965747
 20
13.8966860918
 30
0.0
 10
17.8341996689
 20
13.9000016876
 30
0.0
 10
17.8324027919
 20
13.9033172974
 30
0.0
 10
17.8306058415
 20
13.9066328772
 30
0.0
 10
17.8291086035
 20
13.9093959485
 30
0.0
 10
17.8279103203
 20
13.911606209
 30
0.0
 10
17.8270129537
 20
13.9132644414
 30
0.0
 10
17.8262608678
 20
13.9146445933
 30
0.0
 10
17.8257428076
 20
13.9156140523
 30
0.0
 10
17.8254336574
 20
13.9161627941
 30
0.0
 10
17.8252387422
 20
13.9165890969
 30
0.0
 10
17.8249025953
 20
13.916959031
 30
0.0
 10
17.8245036627
 20
13.9174719385
 30
0.0
 10
17.8237825779
 20
13.9183603657
 30
0.0
 10
17.8227644568
 20
13.9196343368
 30
0.0
 10
17.821537575
 20
13.9211610521
 30
0.0
 10
17.8199035268
 20
13.9231973887
 30
0.0
 10
17.8178603508
 20
13.9257425635
 30
0.0
 10
17.8154088041
 20
13.9287968792
 30
0.0
 10
17.8129571846
 20
13.9318511646
 30
0.0
 10
17.8105055921
 20
13.9349054655
 30
0.0
 10
17.8080539641
 20
13.9379597346
 30
0.0
 10
17.8056024513
 20
13.9410141153
 30
0.0
 10
17.8035591694
 20
13.9435590872
 30
0.0
 10
17.8019253372
 20
13.9455958378
 30
0.0
 10
17.8009023861
 20
13.9468670467
 30
0.0
 10
17.8000881613
 20
13.9478880451
 30
0.0
 10
17.7995698337
 20
13.9485169712
 30
0.0
 10
17.7991767865
 20
13.9490411792
 30
0.0
 10
17.7988228186
 20
13.9493766525
 30
0.0
 10
17.7984522666
 20
13.9496959621
 30
0.0
 10
17.7977196935
 20
13.9503428959
 30
0.0
 10
17.7966172508
 20
13.9513098044
 30
0.0
 10
17.7951493751
 20
13.9526010118
 30
0.0
 10
17.7936809516
 20
13.9538916852
 30
0.0
 10
17.7917232447
 20
13.9556127694
 30
0.0
 10
17.788297168
 20
13.9586245794
 30
0.0
 10
17.7834028249
 20
13.9629272143
 30
0.0
 10
17.7785084439
 20
13.9672298192
 30
0.0
 10
17.7750824202
 20
13.9702416712
 30
0.0
 10
17.77312463
 20
13.9719626895
 30
0.0
 10
17.7716564623
 20
13.9732535652
 30
0.0
 10
17.770187626
 20
13.974544013
 30
0.0
 10
17.7690878733
 20
13.9755130483
 30
0.0
 10
17.7683517895
 20
13.9761572065
 30
0.0
 10
17.7679889534
 20
13.9764826164
 30
0.0
 10
17.7676058773
 20
13.9767950762
 30
0.0
 10
17.766998804
 20
13.9771500704
 30
0.0
 10
17.766272937
 20
13.9776149112
 30
0.0
 10
17.765093122
 20
13.978346866
 30
0.0
 10
17.763624663
 20
13.9792658465
 30
0.0
 10
17.7612716021
 20
13.980733959
 30
0.0
 10
17.7583314859
 20
13.9825698738
 30
0.0
 10
17.7548028285
 20
13.9847726402
 30
0.0
 10
17.7500981328
 20
13.9877097777
 30
0.0
 10
17.7418648306
 20
13.992849714
 30
0.0
 10
17.7348077434
 20
13.9972553924
 30
0.0
 10
17.7301030121
 20
14.0001925071
 30
0.0
  0
SPLINE
  5
426
100
AcDbEntity
  8
03___PRT_ALL_CURVES
100
AcDbSpline
 62
7
  6
BYLAYER
 70
0
 71
3
 72
66
 73
62
 74
0
 42
0.0000001
 43
0.0000001
 44
0.0000000001
 40
0.0
 40
0.0
 40
0.0
 40
0.0
 40
0.0625
 40
0.09375
 40
0.125
 40
0.140625
 40
0.15625
 40
0.1640625
 40
0.16796875
 40
0.171875
 40
0.1796875
 40
0.1875
 40
0.21875
 40
0.25
 40
0.28125
 40
0.3125
 40
0.3203125
 40
0.328125
 40
0.33203125
 40
0.3359375
 40
0.34375
 40
0.359375
 40
0.375
 40
0.40625
 40
0.4375
 40
0.453125
 40
0.46875
 40
0.484375
 40
0.4921875
 40
0.49609375
 40
0.5
 40
0.50390625
 40
0.5078125
 40
0.515625
 40
0.53125
 40
0.546875
 40
0.5625
 40
0.59375
 40
0.625
 40
0.640625
 40
0.65625
 40
0.6640625
 40
0.66796875
 40
0.671875
 40
0.6796875
 40
0.6875
 40
0.71875
 40
0.75
 40
0.78125
 40
0.796875
 40
0.8125
 40
0.8203125
 40
0.828125
 40
0.83203125
 40
0.8359375
 40
0.84375
 40
0.859375
 40
0.875
 40
0.90625
 40
0.9375
 40
1.0
 40
1.0
 40
1.0
 40
1.0
 10
17.7301030159
 20
14.0001925052
 30
0.0
 10
17.7269530932
 20
14.0016538444
 30
0.0
 10
17.7222281096
 20
14.0038457308
 30
0.0
 10
17.7159285298
 20
14.0067687359
 30
0.0
 10
17.7119904627
 20
14.0085945935
 30
0.0
 10
17.7088419008
 20
14.0100576064
 30
0.0
 10
17.7068697348
 20
14.0109666828
 30
0.0
 10
17.705497866
 20
14.0116136712
 30
0.0
 10
17.7047004113
 20
14.0119667397
 30
0.0
 10
17.7038519968
 20
14.0122571371
 30
0.0
 10
17.7028088973
 20
14.0126415557
 30
0.0
 10
17.7002911193
 20
14.0135465248
 30
0.0
 10
17.6965205182
 20
14.014911447
 30
0.0
 10
17.6914893768
 20
14.0167267824
 30
0.0
 10
17.6864599876
 20
14.0185444287
 30
0.0
 10
17.6826854443
 20
14.0199041512
 30
0.0
 10
17.6801727035
 20
14.0208157644
 30
0.0
 10
17.6791203873
 20
14.0211880263
 30
0.0
 10
17.6782909903
 20
14.0215035072
 30
0.0
 10
17.6774160419
 20
14.0217543641
 30
0.0
 10
17.6758637178
 20
14.022163338
 30
0.0
 10
17.6736571541
 20
14.0227632517
 30
0.0
 10
17.670120483
 20
14.0237143621
 30
0.0
 10
17.6657017452
 20
14.0249062258
 30
0.0
 10
17.6612823145
 20
14.0260971262
 30
0.0
 10
17.6577467521
 20
14.0270497778
 30
0.0
 10
17.6550955494
 20
14.0277650506
 30
0.0
 10
17.6528846577
 20
14.0283585264
 30
0.0
 10
17.6513400961
 20
14.0287790445
 30
0.0
 10
17.6504527061
 20
14.0290113989
 30
0.0
 10
17.6498006388
 20
14.0292080369
 30
0.0
 10
17.6490970622
 20
14.0293191567
 30
0.0
 10
17.648176927
 20
14.0294971461
 30
0.0
 10
17.6465583194
 20
14.0297947296
 30
0.0
 10
17.6442503985
 20
14.030227113
 30
0.0
 10
17.6414790244
 20
14.0307428718
 30
0.0
 10
17.6377844919
 20
14.0314315938
 30
0.0
 10
17.633166252
 20
14.0322924223
 30
0.0
 10
17.6285475176
 20
14.0331522424
 30
0.0
 10
17.6248537764
 20
14.0338425778
 30
0.0
 10
17.6225423198
 20
14.0342683434
 30
0.0
 10
17.620930051
 20
14.0345777943
 30
0.0
 10
17.6199997564
 20
14.0347367631
 30
0.0
 10
17.6190355703
 20
14.0348284608
 30
0.0
 10
17.6178419218
 20
14.0349660764
 30
0.0
 10
17.6149676324
 20
14.0352774303
 30
0.0
 10
17.6106601827
 20
14.0357523918
 30
0.0
 10
17.6049147323
 20
14.0363812242
 30
0.0
 10
17.6001270542
 20
14.0369059845
 30
0.0
 10
17.5962975304
 20
14.0373262576
 30
0.0
 10
17.5939024328
 20
14.0375873994
 30
0.0
 10
17.5919901485
 20
14.0377998659
 30
0.0
 10
17.590786309
 20
14.0379245394
 30
0.0
 10
17.5898430773
 20
14.0380428732
 30
0.0
 10
17.5888274153
 20
14.0380933215
 30
0.0
 10
17.58701636
 20
14.0381500701
 30
0.0
 10
17.5844466933
 20
14.0382475935
 30
0.0
 10
17.5803254157
 20
14.0383944355
 30
0.0
 10
17.5751771795
 20
14.0385811378
 30
0.0
 10
17.5669381148
 20
14.0388780933
 30
0.0
 10
17.5607592408
 20
14.0391012077
 30
0.0
 10
17.5566398971
 20
14.0392498623
 30
0.0
  0
SPLINE
  5
427
100
AcDbEntity
  8
03___PRT_ALL_CURVES
100
AcDbSpline
 62
7
  6
BYLAYER
 70
0
 71
3
 72
111
 73
107
 74
0
 42
0.0000001
 43
0.0000001
 44
0.0000000001
 40
0.0
 40
0.0
 40
0.0
 40
0.0
 40
0.0625
 40
0.09375
 40
0.109375
 40
0.125
 40
0.140625
 40
0.1484375
 40
0.15625
 40
0.16015625
 40
0.1640625
 40
0.166015625
 40
0.1669921875
 40
0.16796875
 40
0.169921875
 40
0.171875
 40
0.1796875
 40
0.1875
 40
0.1953125
 40
0.203125
 40
0.21875
 40
0.25
 40
0.28125
 40
0.296875
 40
0.3046875
 40
0.3125
 40
0.3203125
 40
0.32421875
 40
0.328125
 40
0.330078125
 40
0.33203125
 40
0.3330078125
 40
0.333984375
 40
0.3359375
 40
0.33984375
 40
0.34375
 40
0.3515625
 40
0.359375
 40
0.375
 40
0.390625
 40
0.40625
 40
0.421875
 40
0.4375
 40
0.453125
 40
0.46875
 40
0.4765625
 40
0.484375
 40
0.48828125
 40
0.4921875
 40
0.49609375
 40
0.498046875
 40
0.4990234375
 40
0.5
 40
0.5009765625
 40
0.501953125
 40
0.50390625
 40
0.5078125
 40
0.51171875
 40
0.515625
 40
0.5234375
 40
0.53125
 40
0.546875
 40
0.5625
 40
0.578125
 40
0.59375
 40
0.609375
 40
0.625
 40
0.640625
 40
0.6484375
 40
0.65625
 40
0.66015625
 40
0.6640625
 40
0.666015625
 40
0.6669921875
 40
0.66796875
 40
0.669921875
 40
0.671875
 40
0.67578125
 40
0.6796875
 40
0.6875
 40
0.6953125
 40
0.703125
 40
0.71875
 40
0.75
 40
0.78125
 40
0.796875
 40
0.8046875
 40
0.8125
 40
0.8203125
 40
0.82421875
 40
0.828125
 40
0.830078125
 40
0.83203125
 40
0.8330078125
 40
0.833984375
 40
0.8359375
 40
0.83984375
 40
0.84375
 40
0.8515625
 40
0.859375
 40
0.875
 40
0.890625
 40
0.90625
 40
0.9375
 40
0.96875
 40
1.0
 40
1.0
 40
1.0
 40
1.0
 10
17.3509799346
 20
11.8381320771
 30
0.0
 10
17.3550460089
 20
11.8307298998
 30
0.0
 10
17.3611451224
 20
11.8196266383
 30
0.0
 10
17.368260748
 20
11.8066728177
 30
0.0
 10
17.3723268294
 20
11.7992706566
 30
0.0
 10
17.3753763635
 20
11.793718974
 30
0.0
 10
17.3779177277
 20
11.7890927685
 30
0.0
 10
17.3799506266
 20
11.7853913631
 30
0.0
 10
17.3812216267
 20
11.7830789889
 30
0.0
 10
17.3822374231
 20
11.7812267897
 30
0.0
 10
17.3828745859
 20
11.7800744128
 30
0.0
 10
17.3833160102
 20
11.779257232
 30
0.0
 10
17.3835754337
 20
11.7788067263
 30
0.0
 10
17.383861905
 20
11.778418197
 30
0.0
 10
17.384210749
 20
11.7779113516
 30
0.0
 10
17.3850555838
 20
11.7767123579
 30
0.0
 10
17.3863196401
 20
11.7749065443
 30
0.0
 10
17.3880068752
 20
11.7725029784
 30
0.0
 10
17.3896936216
 20
11.7700982928
 30
0.0
 10
17.3919427873
 20
11.7668924359
 30
0.0
 10
17.3958787478
 20
11.7612820048
 30
0.0
 10
17.4015015895
 20
11.7532671949
 30
0.0
 10
17.4071244187
 20
11.745252364
 30
0.0
 10
17.4110603969
 20
11.7396419622
 30
0.0
 10
17.4133095348
 20
11.7364360592
 30
0.0
 10
17.4149963663
 20
11.7340315151
 30
0.0
 10
17.4164021293
 20
11.7320281007
 30
0.0
 10
17.4175265823
 20
11.730424534
 30
0.0
 10
17.418229724
 20
11.7294242065
 30
0.0
 10
17.4187914162
 20
11.7286195894
 30
0.0
 10
17.4191443473
 20
11.7281266406
 30
0.0
 10
17.4194224012
 20
11.7277095217
 30
0.0
 10
17.4197161204
 20
11.7273754928
 30
0.0
 10
17.4202374064
 20
11.726829541
 30
0.0
 10
17.4209783037
 20
11.7260294709
 30
0.0
 10
17.4221658613
 20
11.7247606133
 30
0.0
 10
17.4236495818
 20
11.7231706878
 30
0.0
 10
17.4260239406
 20
11.7206289607
 30
0.0
 10
17.4289917498
 20
11.7174510628
 30
0.0
 10
17.4325531805
 20
11.7136379022
 30
0.0
 10
17.4361145952
 20
11.7098246565
 30
0.0
 10
17.4396760144
 20
11.7060114343
 30
0.0
 10
17.4432374319
 20
11.7021982032
 30
0.0
 10
17.4467988513
 20
11.6983849844
 30
0.0
 10
17.4497666961
 20
11.6952072682
 30
0.0
 10
17.4521409822
 20
11.6926651704
 30
0.0
 10
17.4536248876
 20
11.6910761884
 30
0.0
 10
17.4548120657
 20
11.6898053942
 30
0.0
 10
17.455702302
 20
11.6888512266
 30
0.0
 10
17.456444634
 20
11.6880594971
 30
0.0
 10
17.456963347
 20
11.6874985942
 30
0.0
 10
17.4572611901
 20
11.6871885275
 30
0.0
 10
17.4574805282
 20
11.6869265419
 30
0.0
 10
17.4577153255
 20
11.6867770742
 30
0.0
 10
17.4580229962
 20
11.6865385364
 30
0.0
 10
17.4585639325
 20
11.6861393814
 30
0.0
 10
17.4593353849
 20
11.6855595997
 30
0.0
 10
17.4602616902
 20
11.6848679539
 30
0.0
 10
17.4614965674
 20
11.6839443301
 30
0.0
 10
17.4630402312
 20
11.6827902897
 30
0.0
 10
17.4655100557
 20
11.6809435516
 30
0.0
 10
17.4685973492
 20
11.678635223
 30
0.0
 10
17.4723020958
 20
11.6758651879
 30
0.0
 10
17.4760068441
 20
11.6730951653
 30
0.0
 10
17.4797115914
 20
11.6703251333
 30
0.0
 10
17.483416341
 20
11.6675551266
 30
0.0
 10
17.4871210823
 20
11.6647850279
 30
0.0
 10
17.4902083925
 20
11.6624768981
 30
0.0
 10
17.492678183
 20
11.6606297543
 30
0.0
 10
17.4942219333
 20
11.6594767465
 30
0.0
 10
17.4954566328
 20
11.6585510033
 30
0.0
 10
17.4962290064
 20
11.6579800276
 30
0.0
 10
17.4967682923
 20
11.6575650856
 30
0.0
 10
17.4970786079
 20
11.65735185
 30
0.0
 10
17.497397031
 20
11.657228552
 30
0.0
 10
17.4977922838
 20
11.657043635
 30
0.0
 10
17.4984262398
 20
11.6567649772
 30
0.0
 10
17.4992181535
 20
11.6564107625
 30
0.0
 10
17.5004855124
 20
11.6558473122
 30
0.0
 10
17.5020696091
 20
11.6551418694
 30
0.0
 10
17.5039705687
 20
11.6542958217
 30
0.0
 10
17.5065051664
 20
11.6531675894
 30
0.0
 10
17.5109407195
 20
11.6511932618
 30
0.0
 10
17.5172772196
 20
11.6483727487
 30
0.0
 10
17.5236137232
 20
11.645552266
 30
0.0
 10
17.5280492713
 20
11.6435778959
 30
0.0
 10
17.5305838768
 20
11.6424497305
 30
0.0
 10
17.5324848124
 20
11.6416034774
 30
0.0
 10
17.5340689845
 20
11.6408986772
 30
0.0
 10
17.5353361895
 20
11.640333916
 30
0.0
 10
17.5361284948
 20
11.6399830375
 30
0.0
 10
17.5367616471
 20
11.6396975315
 30
0.0
 10
17.5371589459
 20
11.6395300497
 30
0.0
 10
17.5374731693
 20
11.6393709624
 30
0.0
 10
17.5378005922
 20
11.6393035146
 30
0.0
 10
17.538379714
 20
11.6392280513
 30
0.0
 10
17.5392038316
 20
11.6390980355
 30
0.0
 10
17.5405242077
 20
11.6389024229
 30
0.0
 10
17.5421740657
 20
11.638653657
 30
0.0
 10
17.5448141805
 20
11.6382580069
 30
0.0
 10
17.5481142067
 20
11.6377626292
 30
0.0
 10
17.5520742883
 20
11.637168525
 30
0.0
 10
17.5573543796
 20
11.6363762641
 30
0.0
 10
17.5639544997
 20
11.6353859798
 30
0.0
 10
17.5718746413
 20
11.6341976206
 30
0.0
 10
17.5771547362
 20
11.6334053845
 30
0.0
 10
17.5797947836
 20
11.6330092661
 30
0.0
  0
SPLINE
  5
428
100
AcDbEntity
  8
03___PRT_ALL_CURVES
100
AcDbSpline
 62
7
  6
BYLAYER
 70
0
 71
3
 72
90
 73
86
 74
0
 42
0.0000001
 43
0.0000001
 44
0.0000000001
 40
0.0
 40
0.0
 40
0.0
 40
0.0
 40
0.0625
 40
0.09375
 40
0.109375
 40
0.125
 40
0.140625
 40
0.1484375
 40
0.15625
 40
0.16015625
 40
0.1640625
 40
0.166015625
 40
0.16796875
 40
0.171875
 40
0.1796875
 40
0.1875
 40
0.203125
 40
0.21875
 40
0.25
 40
0.28125
 40
0.296875
 40
0.3125
 40
0.3203125
 40
0.328125
 40
0.33203125
 40
0.333984375
 40
0.3359375
 40
0.33984375
 40
0.34375
 40
0.3515625
 40
0.359375
 40
0.375
 40
0.390625
 40
0.40625
 40
0.421875
 40
0.4375
 40
0.453125
 40
0.46875
 40
0.4765625
 40
0.484375
 40
0.4921875
 40
0.49609375
 40
0.498046875
 40
0.5
 40
0.501953125
 40
0.50390625
 40
0.5078125
 40
0.515625
 40
0.5234375
 40
0.53125
 40
0.546875
 40
0.5625
 40
0.578125
 40
0.59375
 40
0.609375
 40
0.625
 40
0.640625
 40
0.6484375
 40
0.65625
 40
0.66015625
 40
0.6640625
 40
0.666015625
 40
0.66796875
 40
0.671875
 40
0.6796875
 40
0.6875
 40
0.703125
 40
0.71875
 40
0.75
 40
0.78125
 40
0.796875
 40
0.8125
 40
0.8203125
 40
0.828125
 40
0.83203125
 40
0.833984375
 40
0.8359375
 40
0.83984375
 40
0.84375
 40
0.859375
 40
0.875
 40
0.890625
 40
0.90625
 40
0.9375
 40
1.0
 40
1.0
 40
1.0
 40
1.0
 10
17.5190585053
 20
13.0905415435
 30
0.0
 10
17.5160799912
 20
13.0901536653
 30
0.0
 10
17.5116122204
 20
13.0895718396
 30
0.0
 10
17.5063998201
 20
13.0888930723
 30
0.0
 10
17.5034213072
 20
13.0885051634
 30
0.0
 10
17.5011874182
 20
13.0882143489
 30
0.0
 10
17.4993258577
 20
13.0879716303
 30
0.0
 10
17.4978365786
 20
13.0877782924
 30
0.0
 10
17.4969058493
 20
13.0876555506
 30
0.0
 10
17.4961611051
 20
13.0875617212
 30
0.0
 10
17.4956960067
 20
13.0874931205
 30
0.0
 10
17.495323088
 20
13.0874610466
 30
0.0
 10
17.494953236
 20
13.087345712
 30
0.0
 10
17.4943074195
 20
13.0871051984
 30
0.0
 10
17.4933840813
 20
13.0867817878
 30
0.0
 10
17.4919071555
 20
13.0862530529
 30
0.0
 10
17.4900608562
 20
13.0855959977
 30
0.0
 10
17.4871068558
 20
13.0845425394
 30
0.0
 10
17.4834143351
 20
13.0832265378
 30
0.0
 10
17.4797217967
 20
13.0819099638
 30
0.0
 10
17.4767678247
 20
13.0808574212
 30
0.0
 10
17.4749214544
 20
13.0801980767
 30
0.0
 10
17.473444674
 20
13.0796740349
 30
0.0
 10
17.4725209656
 20
13.079338677
 30
0.0
 10
17.4718758141
 20
13.079119622
 30
0.0
 10
17.4715048962
 20
13.0789698906
 30
0.0
 10
17.4711254652
 20
13.0787276489
 30
0.0
 10
17.4706540913
 20
13.0784565221
 30
0.0
 10
17.4698982642
 20
13.0780050175
 30
0.0
 10
17.4689540379
 20
13.0774466978
 30
0.0
 10
17.4674429643
 20
13.0765499988
 30
0.0
 10
17.4655542291
 20
13.0754302876
 30
0.0
 10
17.4632877012
 20
13.0740861355
 30
0.0
 10
17.4610211852
 20
13.0727421178
 30
0.0
 10
17.4587546671
 20
13.071398061
 30
0.0
 10
17.4564881457
 20
13.0700540264
 30
0.0
 10
17.4542216393
 20
13.0687099417
 30
0.0
 10
17.4523328369
 20
13.0675900198
 30
0.0
 10
17.4508219006
 20
13.0666937506
 30
0.0
 10
17.4496884096
 20
13.0660224545
 30
0.0
 10
17.4487447522
 20
13.0654601598
 30
0.0
 10
17.4480823897
 20
13.065072208
 30
0.0
 10
17.4477067111
 20
13.0648416922
 30
0.0
 10
17.4474170242
 20
13.0646936769
 30
0.0
 10
17.447157642
 20
13.06445059
 30
0.0
 10
17.4468012285
 20
13.0641596361
 30
0.0
 10
17.4461824299
 20
13.063635016
 30
0.0
 10
17.445295857
 20
13.0628936367
 30
0.0
 10
17.4442330717
 20
13.0620005238
 30
0.0
 10
17.4428156396
 20
13.0608109144
 30
0.0
 10
17.4410439817
 20
13.0593234881
 30
0.0
 10
17.4389179354
 20
13.0575387549
 30
0.0
 10
17.4367919044
 20
13.0557539715
 30
0.0
 10
17.4346658694
 20
13.0539692107
 30
0.0
 10
17.4325398348
 20
13.0521844097
 30
0.0
 10
17.4304138027
 20
13.0503997467
 30
0.0
 10
17.4286421005
 20
13.0489121012
 30
0.0
 10
17.4272247587
 20
13.047722939
 30
0.0
 10
17.4263388744
 20
13.0469775403
 30
0.0
 10
17.4256302717
 20
13.0463861964
 30
0.0
 10
17.425187156
 20
13.0460052548
 30
0.0
 10
17.4248332109
 20
13.0457265018
 30
0.0
 10
17.4244772668
 20
13.0453528292
 30
0.0
 10
17.423853436
 20
13.044654808
 30
0.0
 10
17.4229627336
 20
13.043680641
 30
0.0
 10
17.421537339
 20
13.0421091167
 30
0.0
 10
17.4197556881
 20
13.040149115
 30
0.0
 10
17.4169049976
 20
13.0370106427
 30
0.0
 10
17.4133416332
 20
13.033088459
 30
0.0
 10
17.4097783349
 20
13.0291657359
 30
0.0
 10
17.4069275386
 20
13.0260281266
 30
0.0
 10
17.4051461521
 20
13.0240659677
 30
0.0
 10
17.4037202154
 20
13.0224988657
 30
0.0
 10
17.402830893
 20
13.0215134406
 30
0.0
 10
17.4022045836
 20
13.0208356401
 30
0.0
 10
17.4018526125
 20
13.0204295551
 30
0.0
 10
17.4015229391
 20
13.0199527717
 30
0.0
 10
17.401103226
 20
13.0193809575
 30
0.0
 10
17.4001021872
 20
13.0179887144
 30
0.0
 10
17.3985979944
 20
13.0159087034
 30
0.0
 10
17.3965939098
 20
13.0131305808
 30
0.0
 10
17.3945894224
 20
13.0103537355
 30
0.0
 10
17.3919169131
 20
13.0066508293
 30
0.0
 10
17.387239956
 20
13.0001709525
 30
0.0
 10
17.3832311582
 20
12.9946167007
 30
0.0
 10
17.3805586213
 20
12.9909138821
 30
0.0
  0
SPLINE
  5
429
100
AcDbEntity
  8
03___PRT_ALL_CURVES
100
AcDbSpline
 62
7
  6
BYLAYER
 70
0
 71
3
 72
133
 73
129
 74
0
 42
0.0000001
 43
0.0000001
 44
0.0000000001
 40
0.0
 40
0.0
 40
0.0
 40
0.0
 40
0.03125
 40
0.0625
 40
0.078125
 40
0.09375
 40
0.109375
 40
0.125
 40
0.140625
 40
0.1484375
 40
0.15234375
 40
0.15625
 40
0.16015625
 40
0.162109375
 40
0.1640625
 40
0.1650390625
 40
0.166015625
 40
0.1665039062
 40
0.1669921875
 40
0.16796875
 40
0.169921875
 40
0.171875
 40
0.17578125
 40
0.1796875
 40
0.1875
 40
0.1953125
 40
0.203125
 40
0.21875
 40
0.234375
 40
0.25
 40
0.265625
 40
0.28125
 40
0.296875
 40
0.3046875
 40
0.3125
 40
0.3203125
 40
0.32421875
 40
0.328125
 40
0.330078125
 40
0.33203125
 40
0.3330078125
 40
0.3334960938
 40
0.333984375
 40
0.3349609375
 40
0.3359375
 40
0.33984375
 40
0.34375
 40
0.34765625
 40
0.3515625
 40
0.359375
 40
0.375
 40
0.390625
 40
0.40625
 40
0.421875
 40
0.4375
 40
0.453125
 40
0.4609375
 40
0.46875
 40
0.4765625
 40
0.484375
 40
0.48828125
 40
0.4921875
 40
0.494140625
 40
0.49609375
 40
0.498046875
 40
0.4990234375
 40
0.5
 40
0.5009765625
 40
0.501953125
 40
0.50390625
 40
0.505859375
 40
0.5078125
 40
0.51171875
 40
0.515625
 40
0.5234375
 40
0.53125
 40
0.5390625
 40
0.546875
 40
0.5625
 40
0.578125
 40
0.59375
 40
0.609375
 40
0.625
 40
0.640625
 40
0.6484375
 40
0.65234375
 40
0.65625
 40
0.66015625
 40
0.6640625
 40
0.6650390625
 40
0.666015625
 40
0.6669921875
 40
0.66796875
 40
0.669921875
 40
0.671875
 40
0.67578125
 40
0.6796875
 40
0.6875
 40
0.6953125
 40
0.703125
 40
0.71875
 40
0.75
 40
0.78125
 40
0.796875
 40
0.8046875
 40
0.8125
 40
0.8203125
 40
0.82421875
 40
0.828125
 40
0.830078125
 40
0.83203125
 40
0.8330078125
 40
0.8334960938
 40
0.833984375
 40
0.8349609375
 40
0.8359375
 40
0.83984375
 40
0.84375
 40
0.84765625
 40
0.8515625
 40
0.859375
 40
0.875
 40
0.890625
 40
0.90625
 40
0.921875
 40
0.9375
 40
0.96875
 40
1.0
 40
1.0
 40
1.0
 40
1.0
 10
17.3489649085
 20
12.9342437051
 30
0.0
 10
17.3462512009
 20
12.9271586363
 30
0.0
 10
17.3408237857
 20
12.9129884987
 30
0.0
 10
17.3340395167
 20
12.8952758268
 30
0.0
 10
17.3286121016
 20
12.8811056891
 30
0.0
 10
17.32454154
 20
12.8704780862
 30
0.0
 10
17.3204709791
 20
12.8598504821
 30
0.0
 10
17.3164004159
 20
12.8492228825
 30
0.0
 10
17.313008287
 20
12.8403665354
 30
0.0
 10
17.3106337829
 20
12.8341671201
 30
0.0
 10
17.309276945
 20
12.8306245538
 30
0.0
 10
17.3082592559
 20
12.8279677511
 30
0.0
 10
17.3074113751
 20
12.8257533601
 30
0.0
 10
17.3067326363
 20
12.8239827192
 30
0.0
 10
17.3063094132
 20
12.8228740833
 30
0.0
 10
17.3059685705
 20
12.8219917214
 30
0.0
 10
17.3057607101
 20
12.8214298708
 30
0.0
 10
17.3055825888
 20
12.8210041522
 30
0.0
 10
17.3054476663
 20
12.8204916857
 30
0.0
 10
17.3052316195
 20
12.8195545712
 30
0.0
 10
17.3049125109
 20
12.8182368618
 30
0.0
 10
17.3044077885
 20
12.8161167766
 30
0.0
 10
17.3037748819
 20
12.8134706934
 30
0.0
 10
17.3027633512
 20
12.8092347116
 30
0.0
 10
17.3014985537
 20
12.8039405059
 30
0.0
 10
17.2999809611
 20
12.7975871288
 30
0.0
 10
17.2979574468
 20
12.7891160747
 30
0.0
 10
17.2954280737
 20
12.7785272174
 30
0.0
 10
17.2923928174
 20
12.7658206058
 30
0.0
 10
17.2893575636
 20
12.7531139894
 30
0.0
 10
17.2863223085
 20
12.740407375
 30
0.0
 10
17.2832870562
 20
12.7277007572
 30
0.0
 10
17.2807576711
 20
12.7171119188
 30
0.0
 10
17.2787341812
 20
12.7086408263
 30
0.0
 10
17.2772165142
 20
12.7022875664
 30
0.0
 10
17.2759519493
 20
12.6969929941
 30
0.0
 10
17.2749399439
 20
12.6927577602
 30
0.0
 10
17.2743082456
 20
12.6901097738
 30
0.0
 10
17.2738010431
 20
12.6879935951
 30
0.0
 10
17.2734882485
 20
12.68666594
 30
0.0
 10
17.273260861
 20
12.6857466891
 30
0.0
 10
17.2731441169
 20
12.6852055884
 30
0.0
 10
17.2730770592
 20
12.6846049224
 30
0.0
 10
17.2729762541
 20
12.6838744496
 30
0.0
 10
17.2727482996
 20
12.682104558
 30
0.0
 10
17.2724004969
 20
12.6794567587
 30
0.0
 10
17.2719401156
 20
12.6759223369
 30
0.0
 10
17.2714788367
 20
12.6723889912
 30
0.0
 10
17.2708641112
 20
12.6676774882
 30
0.0
 10
17.2697881958
 20
12.6594325329
 30
0.0
 10
17.2682512501
 20
12.6476539339
 30
0.0
 10
17.2664068825
 20
12.6335196542
 30
0.0
 10
17.2645625236
 20
12.6193853641
 30
0.0
 10
17.2627181624
 20
12.6052510767
 30
0.0
 10
17.2608738017
 20
12.5911167888
 30
0.0
 10
17.259336835
 20
12.5793382151
 30
0.0
 10
17.2581072599
 20
12.5699153574
 30
0.0
 10
17.2571850835
 20
12.5628482106
 30
0.0
 10
17.2562628884
 20
12.5557810773
 30
0.0
 10
17.2554944508
 20
12.5498917573
 30
0.0
 10
17.25487957
 20
12.545180396
 30
0.0
 10
17.2544955671
 20
12.5422355796
 30
0.0
 10
17.2541876833
 20
12.5398802203
 30
0.0
 10
17.2539586364
 20
12.5381123484
 30
0.0
 10
17.253761828
 20
12.5366434244
 30
0.0
 10
17.2536176946
 20
12.5354586353
 30
0.0
 10
17.2534732163
 20
12.5345964114
 30
0.0
 10
17.2534675941
 20
12.5336335408
 30
0.0
 10
17.2534115936
 20
12.5323848704
 30
0.0
 10
17.2533582345
 20
12.5308119703
 30
0.0
 10
17.2532870805
 20
12.5289296531
 30
0.0
 10
17.2531946965
 20
12.5264180935
 30
0.0
 10
17.2530783645
 20
12.5232792615
 30
0.0
 10
17.2528927096
 20
12.5182567853
 30
0.0
 10
17.2526604775
 20
12.5119788083
 30
0.0
 10
17.252381869
 20
12.5044451852
 30
0.0
 10
17.2521032417
 20
12.4969115757
 30
0.0
 10
17.2517317453
 20
12.4868667583
 30
0.0
 10
17.2512673725
 20
12.4743107381
 30
0.0
 10
17.2507101262
 20
12.4592435133
 30
0.0
 10
17.2501528792
 20
12.4441762885
 30
0.0
 10
17.2495956342
 20
12.4291090641
 30
0.0
 10
17.2490383818
 20
12.4140418381
 30
0.0
 10
17.2485740277
 20
12.4014858214
 30
0.0
 10
17.248248935
 20
12.3926965999
 30
0.0
 10
17.2480632377
 20
12.387674203
 30
0.0
 10
17.2479237678
 20
12.3839073619
 30
0.0
 10
17.2477850504
 20
12.3801406869
 30
0.0
 10
17.2476789025
 20
12.377315215
 30
0.0
 10
17.2476114185
 20
12.3754322912
 30
0.0
 10
17.2475718173
 20
12.3744895362
 30
0.0
 10
17.2475549969
 20
12.3735518087
 30
0.0
 10
17.2476409659
 20
12.3723254265
 30
0.0
 10
17.2477113126
 20
12.3707842582
 30
0.0
 10
17.2478446085
 20
12.3683229661
 30
0.0
 10
17.2480041266
 20
12.3652447838
 30
0.0
 10
17.2482633248
 20
12.3603205681
 30
0.0
 10
17.2485859607
 20
12.3541649978
 30
0.0
 10
17.2489737067
 20
12.3467784422
 30
0.0
 10
17.249490498
 20
12.3369296564
 30
0.0
 10
17.2503949777
 20
12.3196943024
 30
0.0
 10
17.2516870401
 20
12.2950723563
 30
0.0
 10
17.2529791272
 20
12.2704504174
 30
0.0
 10
17.2538835724
 20
12.2532150531
 30
0.0
 10
17.2544004179
 20
12.2433662835
 30
0.0
 10
17.2547879977
 20
12.2359796783
 30
0.0
 10
17.2551111536
 20
12.2298242632
 30
0.0
 10
17.2553692909
 20
12.224899731
 30
0.0
 10
17.2555315088
 20
12.2218223541
 30
0.0
 10
17.255659263
 20
12.2193594087
 30
0.0
 10
17.2557437187
 20
12.2178224497
 30
0.0
 10
17.2557936
 20
12.2167418049
 30
0.0
 10
17.2558365569
 20
12.2161317622
 30
0.0
 10
17.2559339522
 20
12.2155498497
 30
0.0
 10
17.2560370891
 20
12.2148128441
 30
0.0
 10
17.2562999322
 20
12.2130519442
 30
0.0
 10
17.2566877646
 20
12.2104072706
 30
0.0
 10
17.2572085508
 20
12.2068829388
 30
0.0
 10
17.2577283537
 20
12.2033580989
 30
0.0
 10
17.2584217672
 20
12.1986584896
 30
0.0
 10
17.2596350809
 20
12.1904340907
 30
0.0
 10
17.2613684699
 20
12.1786849926
 30
0.0
 10
17.2634485008
 20
12.1645860564
 30
0.0
 10
17.2655285413
 20
12.1504871252
 30
0.0
 10
17.2676085792
 20
12.1363881926
 30
0.0
 10
17.270381964
 20
12.1175896164
 30
0.0
 10
17.2738486947
 20
12.0940913958
 30
0.0
 10
17.2766220794
 20
12.0752928195
 30
0.0
 10
17.2780087717
 20
12.0658935313
 30
0.0
  0
SPLINE
  5
42A
100
AcDbEntity
  8
03___PRT_ALL_CURVES
100
AcDbSpline
 62
7
  6
BYLAYER
 70
0
 71
3
 72
68
 73
64
 74
0
 42
0.0000001
 43
0.0000001
 44
0.0000000001
 40
0.0
 40
0.0
 40
0.0
 40
0.0
 40
0.0625
 40
0.09375
 40
0.125
 40
0.140625
 40
0.15625
 40
0.1640625
 40
0.16796875
 40
0.171875
 40
0.1796875
 40
0.1875
 40
0.21875
 40
0.25
 40
0.28125
 40
0.3125
 40
0.3203125
 40
0.328125
 40
0.33203125
 40
0.3359375
 40
0.34375
 40
0.359375
 40
0.375
 40
0.40625
 40
0.4375
 40
0.453125
 40
0.46875
 40
0.484375
 40
0.4921875
 40
0.49609375
 40
0.5
 40
0.50390625
 40
0.5078125
 40
0.515625
 40
0.53125
 40
0.546875
 40
0.5625
 40
0.59375
 40
0.625
 40
0.640625
 40
0.65625
 40
0.6640625
 40
0.671875
 40
0.6796875
 40
0.6875
 40
0.71875
 40
0.75
 40
0.78125
 40
0.796875
 40
0.8125
 40
0.8203125
 40
0.828125
 40
0.83203125
 40
0.833984375
 40
0.8359375
 40
0.83984375
 40
0.84375
 40
0.859375
 40
0.875
 40
0.890625
 40
0.90625
 40
0.9375
 40
1.0
 40
1.0
 40
1.0
 40
1.0
 10
17.2780087704
 20
12.0658935379
 30
0.0
 10
17.2791773711
 20
12.0605512112
 30
0.0
 10
17.2809303419
 20
12.05253783
 30
0.0
 10
17.2832673578
 20
12.0418528865
 30
0.0
 10
17.2847285727
 20
12.0351757032
 30
0.0
 10
17.2858962224
 20
12.0298318902
 30
0.0
 10
17.2866290191
 20
12.0264967199
 30
0.0
 10
17.2871359331
 20
12.0241526557
 30
0.0
 10
17.2874350542
 20
12.022827968
 30
0.0
 10
17.2877697912
 20
12.0215589404
 30
0.0
 10
17.2881760385
 20
12.0199536306
 30
0.0
 10
17.2891610539
 20
12.0161165498
 30
0.0
 10
17.2906343355
 20
12.0103542912
 30
0.0
 10
17.2926012891
 20
12.0026753533
 30
0.0
 10
17.2945669786
 20
11.9949942811
 30
0.0
 10
17.2960431044
 20
11.9892368247
 30
0.0
 10
17.2970244854
 20
11.9853936078
 30
0.0
 10
17.2974373827
 20
11.9837995253
 30
0.0
 10
17.2977583984
 20
11.9825073316
 30
0.0
 10
17.2981134314
 20
11.9812770422
 30
0.0
 10
17.2987505441
 20
11.9791527979
 30
0.0
 10
17.2996524591
 20
11.9761031571
 30
0.0
 10
17.30110013
 20
11.9712321147
 30
0.0
 10
17.3029081509
 20
11.9651404637
 30
0.0
 10
17.3047166842
 20
11.9590497262
 30
0.0
 10
17.3061635353
 20
11.9541772223
 30
0.0
 10
17.3072482927
 20
11.9505220382
 30
0.0
 10
17.3081535169
 20
11.9474787026
 30
0.0
 10
17.308784695
 20
11.9453431529
 30
0.0
 10
17.3091492397
 20
11.944130983
 30
0.0
 10
17.309411742
 20
11.9431989131
 30
0.0
 10
17.3097159336
 20
11.9423545411
 30
0.0
 10
17.3101069807
 20
11.9411981217
 30
0.0
 10
17.3107980879
 20
11.9391886402
 30
0.0
 10
17.3117818459
 20
11.9363105025
 30
0.0
 10
17.3129638529
 20
11.9328599191
 30
0.0
 10
17.3145394243
 20
11.9282580648
 30
0.0
 10
17.3165084289
 20
11.9225058656
 30
0.0
 10
17.3184798194
 20
11.9167545369
 30
0.0
 10
17.3200515733
 20
11.9121512899
 30
0.0
 10
17.3210461226
 20
11.9092792854
 30
0.0
 10
17.3218138143
 20
11.906970168
 30
0.0
 10
17.3224661046
 20
11.9052698564
 30
0.0
 10
17.3231398376
 20
11.9035783793
 30
0.0
 10
17.3244762733
 20
11.9001908796
 30
0.0
 10
17.326485562
 20
11.895111552
 30
0.0
 10
17.3291619538
 20
11.8883379558
 30
0.0
 10
17.3313929059
 20
11.8826937403
 30
0.0
 10
17.3331774959
 20
11.8781778723
 30
0.0
 10
17.3342929811
 20
11.8753564699
 30
0.0
 10
17.3351851327
 20
11.8730970356
 30
0.0
 10
17.3357432606
 20
11.8716901625
 30
0.0
 10
17.3361328823
 20
11.8706947832
 30
0.0
 10
17.3363571939
 20
11.8701425299
 30
0.0
 10
17.3365877978
 20
11.869652555
 30
0.0
 10
17.3368739018
 20
11.8690187993
 30
0.0
 10
17.3375623218
 20
11.867515306
 30
0.0
 10
17.3385942083
 20
11.8652527073
 30
0.0
 10
17.3399704818
 20
11.8622401149
 30
0.0
 10
17.3413466417
 20
11.8592263974
 30
0.0
 10
17.3431815612
 20
11.8552085
 30
0.0
 10
17.3463926517
 20
11.8481769955
 30
0.0
 10
17.3491450213
 20
11.8421500548
 30
0.0
 10
17.350979933
 20
11.8381320803
 30
0.0
  0
LINE
  5
42B
100
AcDbEntity
  8
03___PRT_ALL_CURVES
100
AcDbLine
 62
7
  6
BYLAYER
 10
18.3185274214
 20
12.7517790876
 11
18.3143494477
 21
12.7728614475
  0
SPLINE
  5
42C
100
AcDbEntity
  8
0
100
AcDbSpline
 62
7
  6
BYLAYER
 70
0
 71
3
 72
14
 73
10
 74
0
 42
0.0000001
 43
0.0000001
 44
0.0000000001
 40
0.0
 40
0.0
 40
0.0
 40
0.0
 40
0.2966668392
 40
0.4308418864
 40
0.5564498267
 40
0.6745694335
 40
0.7866399101
 40
0.8944311037
 40
1.0
 40
1.0
 40
1.0
 40
1.0
 10
16.9700556713
 20
13.2399875513
 30
0.0
 10
16.9592229686
 20
13.2550155051
 30
0.0
 10
16.9420235031
 20
13.2759095821
 30
0.0
 10
16.9163666061
 20
13.2994124163
 30
0.0
 10
16.8973600373
 20
13.3134833654
 30
0.0
 10
16.8780086101
 20
13.3245174191
 30
0.0
 10
16.8583785861
 20
13.3324596702
 30
0.0
 10
16.8385534445
 20
13.3372539027
 30
0.0
 10
16.8252068271
 20
13.3383251894
 30
0.0
 10
16.818614598
 20
13.3383256296
 30
0.0
  0
LINE
  5
42D
100
AcDbEntity
  8
0
100
AcDbLine
 62
7
  6
BYLAYER
 10
16.6210840981
 20
11.6460875491
 11
16.6170731458
 21
11.646350208
  0
SPLINE
  5
42E
100
AcDbEntity
  8
0
100
AcDbSpline
 62
7
  6
BYLAYER
 70
0
 71
3
 72
11
 73
7
 74
0
 42
0.0000001
 43
0.0000001
 44
0.0000000001
 40
0.0
 40
0.0
 40
0.0
 40
0.0
 40
0.2268630568
 40
0.4649901318
 40
0.7222804645
 40
1.0
 40
1.0
 40
1.0
 40
1.0
 10
16.5692280859
 20
11.6380987298
 30
0.0
 10
16.5700022656
 20
11.6365274062
 30
0.0
 10
16.5721601515
 20
11.6335593333
 30
0.0
 10
16.5767799988
 20
11.6302891875
 30
0.0
 10
16.5824785221
 20
11.6283039561
 30
0.0
 10
16.5866272823
 20
11.6278904381
 30
0.0
 10
16.5887716511
 20
11.6278904381
 30
0.0
  0
SPLINE
  5
42F
100
AcDbEntity
  8
0
100
AcDbSpline
 62
7
  6
BYLAYER
 70
0
 71
3
 72
15
 73
11
 74
0
 42
0.0000001
 43
0.0000001
 44
0.0000000001
 40
0.0
 40
0.0
 40
0.0
 40
0.0
 40
0.1646110418
 40
0.3165485558
 40
0.4558236273
 40
0.5828959
 40
0.6987571477
 40
0.8051072277
 40
0.9044329016
 40
1.0
 40
1.0
 40
1.0
 40
1.0
 10
17.1411037003
 20
13.0754365858
 30
0.0
 10
17.1351757004
 20
13.087824517
 30
0.0
 10
17.122994885
 20
13.1112871544
 30
0.0
 10
17.1028608935
 20
13.1436007779
 30
0.0
 10
17.0817047934
 20
13.1714281497
 30
0.0
 10
17.0596624167
 20
13.194578253
 30
0.0
 10
17.0368482072
 20
13.2128732011
 30
0.0
 10
17.0133799984
 20
13.2261527499
 30
0.0
 10
16.9894090979
 20
13.2342314935
 30
0.0
 10
16.9730976446
 20
13.2360553063
 30
0.0
 10
16.9651246293
 20
13.2360534432
 30
0.0
  0
SPLINE
  5
430
100
AcDbEntity
  8
0
100
AcDbSpline
 62
7
  6
BYLAYER
 70
0
 71
3
 72
21
 73
17
 74
0
 42
0.0000001
 43
0.0000001
 44
0.0000000001
 40
0.0
 40
0.0
 40
0.0
 40
0.0
 40
0.0521085356
 40
0.1080411356
 40
0.1675180818
 40
0.2301222135
 40
0.2953343807
 40
0.3625611594
 40
0.5003995056
 40
0.6381801615
 40
0.7053361731
 40
0.7704518504
 40
0.8329363976
 40
0.8922742333
 40
0.9480532081
 40
1.0
 40
1.0
 40
1.0
 40
1.0
 10
14.698498387
 20
11.9473857255
 30
0.0
 10
14.6896356429
 20
11.9657990505
 30
0.0
 10
14.6729954234
 20
12.0048253333
 30
0.0
 10
14.6517383302
 20
12.0670351815
 30
0.0
 10
14.6334127904
 20
12.1344426417
 30
0.0
 10
14.6181745713
 20
12.2063301474
 30
0.0
 10
14.6061664319
 20
12.2819035283
 30
0.0
 10
14.5945409504
 20
12.3872910986
 30
0.0
 10
14.5889007264
 20
12.5218088551
 30
0.0
 10
14.5947792637
 20
12.6562890434
 30
0.0
 10
14.6065962861
 20
12.7615666817
 30
0.0
 10
14.6187403746
 20
12.837004544
 30
0.0
 10
14.6341088535
 20
12.9087220846
 30
0.0
 10
14.6525583781
 20
12.9759283937
 30
0.0
 10
14.6739330538
 20
13.0379098787
 30
0.0
 10
14.6906538322
 20
13.0767678043
 30
0.0
 10
14.6995562458
 20
13.0950914883
 30
0.0
  0
SPLINE
  5
431
100
AcDbEntity
  8
0
100
AcDbSpline
 62
7
  6
BYLAYER
 70
0
 71
3
 72
15
 73
11
 74
0
 42
0.0000001
 43
0.0000001
 44
0.0000000001
 40
0.0
 40
0.0
 40
0.0
 40
0.0
 40
0.0955743435
 40
0.1949085991
 40
0.301261264
 40
0.41712918
 40
0.5441828011
 40
0.6834364332
 40
0.8353854338
 40
1.0
 40
1.0
 40
1.0
 40
1.0
 10
16.9651519858
 20
11.8042368383
 30
0.0
 10
16.9731208079
 20
11.8042380131
 30
0.0
 10
16.9894236878
 20
11.8060601124
 30
0.0
 10
17.0133796412
 20
11.814140285
 30
0.0
 10
17.0368377118
 20
11.8274072622
 30
0.0
 10
17.0596362303
 20
11.8456925729
 30
0.0
 10
17.0816708529
 20
11.8688191823
 30
0.0
 10
17.1028161193
 20
11.8966256524
 30
0.0
 10
17.1229449771
 20
11.9289147553
 30
0.0
 10
17.1351219317
 20
11.9523628841
 30
0.0
 10
17.1410498497
 20
11.964742019
 30
0.0
  0
SPLINE
  5
432
100
AcDbEntity
  8
0
100
AcDbSpline
 62
7
  6
BYLAYER
 70
0
 71
3
 72
11
 73
7
 74
0
 42
0.0000001
 43
0.0000001
 44
0.0000000001
 40
0.0
 40
0.0
 40
0.0
 40
0.0
 40
0.2753705521
 40
0.5298158725
 40
0.7689809606
 40
1.0
 40
1.0
 40
1.0
 40
1.0
 10
16.9664582866
 20
11.8023564375
 30
0.0
 10
16.9592619761
 20
11.7961802889
 30
0.0
 10
16.9446378704
 20
11.7851483462
 30
0.0
 10
16.9211538028
 20
11.7726416156
 30
0.0
 10
16.8972300837
 20
11.7650379491
 30
0.0
 10
16.8809912664
 20
11.7633273527
 30
0.0
 10
16.8730354148
 20
11.7633275953
 30
0.0
  0
SPLINE
  5
433
100
AcDbEntity
  8
0
100
AcDbSpline
 62
7
  6
BYLAYER
 70
0
 71
3
 72
11
 73
7
 74
0
 42
0.0000001
 43
0.0000001
 44
0.0000000001
 40
0.0
 40
0.0
 40
0.0
 40
0.0
 40
0.2310144722
 40
0.4701658229
 40
0.7246257412
 40
1.0
 40
1.0
 40
1.0
 40
1.0
 10
16.8730354148
 20
13.2769628121
 30
0.0
 10
16.8809907807
 20
13.2769633628
 30
0.0
 10
16.8972277661
 20
13.2752497562
 30
0.0
 10
16.9211521511
 20
13.2676522178
 30
0.0
 10
16.9446332422
 20
13.2551412941
 30
0.0
 10
16.9592586976
 20
13.2441118288
 30
0.0
 10
16.9664549456
 20
13.2379360124
 30
0.0
  0
SPLINE
  5
434
100
AcDbEntity
  8
0
100
AcDbSpline
 62
7
  6
BYLAYER
 70
0
 71
3
 72
11
 73
7
 74
0
 42
0.0000001
 43
0.0000001
 44
0.0000000001
 40
0.0
 40
0.0
 40
0.0
 40
0.0
 40
0.2220212264
 40
0.4564411429
 40
0.7135107787
 40
1.0
 40
1.0
 40
1.0
 40
1.0
 10
16.818624929
 20
11.7019642071
 30
0.0
 10
16.8295883596
 20
11.7019665535
 30
0.0
 10
16.8522250146
 20
11.7050352606
 30
0.0
 10
16.8851192687
 20
11.7184979631
 30
0.0
 10
16.9169606675
 20
11.7404079721
 30
0.0
 10
16.9362156046
 20
11.7592818603
 30
0.0
 10
16.9456538497
 20
11.7698200469
 30
0.0
  0
SPLINE
  5
435
100
AcDbEntity
  8
0
100
AcDbSpline
 62
7
  6
BYLAYER
 70
0
 71
3
 72
35
 73
31
 74
0
 42
0.0000001
 43
0.0000001
 44
0.0000000001
 40
0.0
 40
0.0
 40
0.0
 40
0.0
 40
0.0168139605
 40
0.0344923157
 40
0.0537553191
 40
0.0751099917
 40
0.0988622049
 40
0.1251561698
 40
0.1540120133
 40
0.1853598407
 40
0.2190595801
 40
0.2549157509
 40
0.2926914896
 40
0.3321148449
 40
0.4146705396
 40
0.4999958438
 40
0.5853213656
 40
0.6678778094
 40
0.7073014858
 40
0.7450779788
 40
0.7809347768
 40
0.8146350448
 40
0.8459839468
 40
0.8748404692
 40
0.9011351086
 40
0.9248884183
 40
0.9462436404
 40
0.9655072049
 40
0.9831861347
 40
1.0
 40
1.0
 40
1.0
 40
1.0
 10
14.9262632504
 20
11.7019642071
 30
0.0
 10
14.9157706373
 20
11.7019619615
 30
0.0
 10
14.8941584661
 20
11.7047588165
 30
0.0
 10
14.8626561548
 20
11.7170610605
 30
0.0
 10
14.8320613371
 20
11.7371463735
 30
0.0
 10
14.8025937937
 20
11.7646711223
 30
0.0
 10
14.7744236616
 20
11.7993377313
 30
0.0
 10
14.747757349
 20
11.8408274838
 30
0.0
 10
14.7228093394
 20
11.8887646307
 30
0.0
 10
14.6998039734
 20
11.9427127626
 30
0.0
 10
14.6789556798
 20
12.002171251
 30
0.0
 10
14.6604598113
 20
12.0665802732
 30
0.0
 10
14.6444950254
 20
12.1353311739
 30
0.0
 10
14.6265196734
 20
12.233421209
 30
0.0
 10
14.6115894867
 20
12.3620855565
 30
0.0
 10
14.60562164
 20
12.5201321144
 30
0.0
 10
14.611588006
 20
12.6781791386
 30
0.0
 10
14.6265157139
 20
12.8068446175
 30
0.0
 10
14.6444907759
 20
12.9049358548
 30
0.0
 10
14.6604539444
 20
12.9736882093
 30
0.0
 10
14.6789492176
 20
13.0380986722
 30
0.0
 10
14.6997974339
 20
13.0975586298
 30
0.0
 10
14.7228011564
 20
13.1515090006
 30
0.0
 10
14.747749042
 20
13.1994479759
 30
0.0
 10
14.7744153469
 20
13.2409394565
 30
0.0
 10
14.8025839752
 20
13.275609156
 30
0.0
 10
14.8320518628
 20
13.3031356835
 30
0.0
 10
14.8626463551
 20
13.3232230002
 30
0.0
 10
14.894148034
 20
13.335529189
 30
0.0
 10
14.9157603655
 20
13.3383263301
 30
0.0
 10
14.9262529194
 20
13.3383256296
 30
0.0
  0
SPLINE
  5
436
100
AcDbEntity
  8
0
100
AcDbSpline
 62
7
  6
BYLAYER
 70
0
 71
3
 72
9
 73
5
 74
0
 42
0.0000001
 43
0.0000001
 44
0.0000000001
 40
0.0
 40
0.0
 40
0.0
 40
0.0
 40
0.4955046874
 40
1.0
 40
1.0
 40
1.0
 40
1.0
 10
16.6170731458
 20
11.646350208
 30
0.0
 10
16.6120629874
 20
11.646350208
 30
0.0
 10
16.601911586
 20
11.6440427826
 30
0.0
 10
16.5932645218
 20
11.6383001778
 30
0.0
 10
16.5896793199
 20
11.6346715159
 30
0.0
  0
SPLINE
  5
437
100
AcDbEntity
  8
0
100
AcDbSpline
 62
7
  6
BYLAYER
 70
0
 71
3
 72
9
 73
5
 74
0
 42
0.0000001
 43
0.0000001
 44
0.0000000001
 40
0.0
 40
0.0
 40
0.0
 40
0.0
 40
0.2573680283
 40
1.0
 40
1.0
 40
1.0
 40
1.0
 10
16.5896793199
 20
11.6346715159
 30
0.0
 10
16.5891874946
 20
11.6341737286
 30
0.0
 10
16.5873344774
 20
11.6321838337
 30
0.0
 10
16.5857168315
 20
11.6299695949
 30
0.0
 10
16.5847044113
 20
11.6282225595
 30
0.0
  0
SPLINE
  5
438
100
AcDbEntity
  8
0
100
AcDbSpline
 62
7
  6
BYLAYER
 70
0
 71
3
 72
13
 73
9
 74
0
 42
0.0000001
 43
0.0000001
 44
0.0000000001
 40
0.0
 40
0.0
 40
0.0
 40
0.0
 40
0.2703666341
 40
0.5445113913
 40
0.6725053084
 40
0.7902812471
 40
0.8982226173
 40
1.0
 40
1.0
 40
1.0
 40
1.0
 10
16.5887716511
 20
11.6278904381
 30
0.0
 10
16.5939628356
 20
11.6278904381
 30
0.0
 10
16.6044634515
 20
11.6303650101
 30
0.0
 10
16.6153778626
 20
11.6378963318
 30
0.0
 10
16.6214359573
 20
11.645933696
 30
0.0
 10
16.6240850067
 20
11.6522814581
 30
0.0
 10
16.6246942317
 20
11.6586494015
 30
0.0
 10
16.6236148451
 20
11.6626439491
 30
0.0
 10
16.6227511716
 20
11.6643969149
 30
0.0
  0
SPLINE
  5
439
100
AcDbEntity
  8
0
100
AcDbSpline
 62
7
  6
BYLAYER
 70
0
 71
3
 72
11
 73
7
 74
0
 42
0.0000001
 43
0.0000001
 44
0.0000000001
 40
0.0
 40
0.0
 40
0.0
 40
0.0
 40
0.2217803817
 40
0.460146674
 40
0.7197493828
 40
1.0
 40
1.0
 40
1.0
 40
1.0
 10
15.7515942743
 20
11.9670849965
 30
0.0
 10
15.7522586287
 20
11.968016848
 30
0.0
 10
15.7539487148
 20
11.9697412732
 30
0.0
 10
15.7572081752
 20
11.9716005932
 30
0.0
 10
15.7610929362
 20
11.9727330518
 30
0.0
 10
15.7638872104
 20
11.9729702005
 30
0.0
 10
15.7653333547
 20
11.9729702005
 30
0.0
  0
SPLINE
  5
43A
100
AcDbEntity
  8
0
100
AcDbSpline
 62
7
  6
BYLAYER
 70
0
 71
3
 72
9
 73
5
 74
0
 42
0.0000001
 43
0.0000001
 44
0.0000000001
 40
0.0
 40
0.0
 40
0.0
 40
0.0
 40
0.2412743583
 40
1.0
 40
1.0
 40
1.0
 40
1.0
 10
15.93279899
 20
11.9729702005
 30
0.0
 10
15.9339145565
 20
11.9729702005
 30
0.0
 10
15.93853573
 20
11.9726656376
 30
0.0
 10
15.943063065
 20
11.9712621074
 30
0.0
 10
15.9462162248
 20
11.9697245169
 30
0.0
  0
SPLINE
  5
43B
100
AcDbEntity
  8
0
100
AcDbSpline
 62
7
  6
BYLAYER
 70
0
 71
3
 72
35
 73
31
 74
0
 42
0.0000001
 43
0.0000001
 44
0.0000000001
 40
0.0
 40
0.0
 40
0.0
 40
0.0
 40
0.0168138653
 40
0.0344927951
 40
0.0537563596
 40
0.0751115817
 40
0.0988648914
 40
0.1251595308
 40
0.1540160532
 40
0.1853649552
 40
0.2190652232
 40
0.2549220212
 40
0.2926985142
 40
0.3321221906
 40
0.4146786344
 40
0.5000041562
 40
0.5853294604
 40
0.6678851551
 40
0.7073085104
 40
0.7450842491
 40
0.7809404199
 40
0.8146401593
 40
0.8459879867
 40
0.8748438302
 40
0.9011377951
 40
0.9248900083
 40
0.9462446809
 40
0.9655076843
 40
0.9831860395
 40
1.0
 40
1.0
 40
1.0
 40
1.0
 10
16.818614598
 20
13.3383256296
 30
0.0
 10
16.8081220441
 20
13.3383263301
 30
0.0
 10
16.7865097126
 20
13.335529189
 30
0.0
 10
16.7550080337
 20
13.3232230002
 30
0.0
 10
16.7244135414
 20
13.3031356835
 30
0.0
 10
16.6949456538
 20
13.275609156
 30
0.0
 10
16.6667770255
 20
13.2409394565
 30
0.0
 10
16.6401107206
 20
13.1994479759
 30
0.0
 10
16.615162835
 20
13.1515090006
 30
0.0
 10
16.5921591125
 20
13.0975586298
 30
0.0
 10
16.5713108962
 20
13.0380986722
 30
0.0
 10
16.552815623
 20
12.9736882093
 30
0.0
 10
16.5368524545
 20
12.9049358548
 30
0.0
 10
16.5188773925
 20
12.8068446175
 30
0.0
 10
16.5039496846
 20
12.6781791386
 30
0.0
 10
16.4979833186
 20
12.5201321144
 30
0.0
 10
16.5039511653
 20
12.3620855565
 30
0.0
 10
16.518881352
 20
12.233421209
 30
0.0
 10
16.536856704
 20
12.1353311739
 30
0.0
 10
16.5528214899
 20
12.0665802732
 30
0.0
 10
16.5713173584
 20
12.002171251
 30
0.0
 10
16.592165652
 20
11.9427127626
 30
0.0
 10
16.615171018
 20
11.8887646307
 30
0.0
 10
16.6401190276
 20
11.8408274838
 30
0.0
 10
16.6667853402
 20
11.7993377313
 30
0.0
 10
16.6949554723
 20
11.7646711223
 30
0.0
 10
16.7244230156
 20
11.7371463735
 30
0.0
 10
16.7550178334
 20
11.7170610605
 30
0.0
 10
16.7865201447
 20
11.7047588165
 30
0.0
 10
16.8081323159
 20
11.7019619615
 30
0.0
 10
16.818624929
 20
11.7019642071
 30
0.0
  0
SPLINE
  5
43C
100
AcDbEntity
  8
0
100
AcDbSpline
 62
7
  6
BYLAYER
 70
0
 71
3
 72
34
 73
30
 74
0
 42
0.0000001
 43
0.0000001
 44
0.0000000001
 40
0.0
 40
0.0
 40
0.0
 40
0.0
 40
0.016814415
 40
0.0344945864
 40
0.0537592143
 40
0.0751166277
 40
0.0988717959
 40
0.1251677607
 40
0.1540267597
 40
0.1853769808
 40
0.2190785944
 40
0.2549372703
 40
0.3321178949
 40
0.4146758042
 40
0.5000023709
 40
0.5853281893
 40
0.6678842257
 40
0.7073072786
 40
0.7450832156
 40
0.7809394385
 40
0.8146388155
 40
0.8459870958
 40
0.874842823
 40
0.9011367126
 40
0.924889439
 40
0.9462441039
 40
0.9655073605
 40
0.983186076
 40
1.0
 40
1.0
 40
1.0
 40
1.0
 10
16.9651246293
 20
13.2360534432
 30
0.0
 10
16.9559436823
 20
13.2360512979
 30
0.0
 10
16.9370329653
 20
13.2336014776
 30
0.0
 10
16.9094714223
 20
13.2228260917
 30
0.0
 10
16.8827008569
 20
13.205248362
 30
0.0
 10
16.8569193633
 20
13.1811569871
 30
0.0
 10
16.8322734531
 20
13.1508180848
 30
0.0
 10
16.8089402493
 20
13.114511279
 30
0.0
 10
16.7871145225
 20
13.0725615039
 30
0.0
 10
16.7669871364
 20
13.0253538374
 30
0.0
 10
16.7487446703
 20
12.9733252845
 30
0.0
 10
16.7266316063
 20
12.8962767451
 30
0.0
 10
16.7052574492
 20
12.7914575138
 30
0.0
 10
16.6898100502
 20
12.6584050124
 30
0.0
 10
16.6845950267
 20
12.5201083181
 30
0.0
 10
16.6898178281
 20
12.3818241784
 30
0.0
 10
16.7028811872
 20
12.2692460562
 30
0.0
 10
16.7186114174
 20
12.1834208127
 30
0.0
 10
16.7325796989
 20
12.1232659358
 30
0.0
 10
16.7487633996
 20
12.0669102532
 30
0.0
 10
16.767006475
 20
12.0148864651
 30
0.0
 10
16.7871344311
 20
11.967683187
 30
0.0
 10
16.8089640648
 20
11.9257399737
 30
0.0
 10
16.8322969947
 20
11.8894381663
 30
0.0
 10
16.8569440668
 20
11.8591049255
 30
0.0
 10
16.8827282807
 20
11.8350221256
 30
0.0
 10
16.9094976866
 20
11.8174476353
 30
0.0
 10
16.9370612321
 20
11.8066825011
 30
0.0
 10
16.9559713067
 20
11.8042354848
 30
0.0
 10
16.9651519858
 20
11.8042368383
 30
0.0
  0
SPLINE
  5
43D
100
AcDbEntity
  8
0
100
AcDbSpline
 62
7
  6
BYLAYER
 70
0
 71
3
 72
9
 73
5
 74
0
 42
0.0000001
 43
0.0000001
 44
0.0000000001
 40
0.0
 40
0.0
 40
0.0
 40
0.0
 40
0.5296001132
 40
1.0
 40
1.0
 40
1.0
 40
1.0
 10
15.9607258929
 20
11.9536409608
 30
0.0
 10
15.970305174
 20
11.9280075315
 30
0.0
 10
15.9904421512
 20
11.88033216
 30
0.0
 10
16.0157192667
 20
11.8350786609
 30
0.0
 10
16.0291420827
 20
11.8148152358
 30
0.0
  0
SPLINE
  5
43E
100
AcDbEntity
  8
0
100
AcDbSpline
 62
7
  6
BYLAYER
 70
0
 71
3
 72
34
 73
30
 74
0
 42
0.0000001
 43
0.0000001
 44
0.0000000001
 40
0.0
 40
0.0
 40
0.0
 40
0.0
 40
0.0168141538
 40
0.0344934241
 40
0.0537574976
 40
0.0751131638
 40
0.0988670056
 40
0.1251620706
 40
0.1540189874
 40
0.1853684366
 40
0.2190689336
 40
0.2549262008
 40
0.2927030868
 40
0.3321269739
 40
0.4146842708
 40
0.5000107224
 40
0.5853372262
 40
0.6678943466
 40
0.7450734739
 40
0.7809311569
 40
0.8146316349
 40
0.8459805984
 40
0.8748382516
 40
0.901132826
 40
0.9248866197
 40
0.9462427612
 40
0.9655063326
 40
0.9831858017
 40
1.0
 40
1.0
 40
1.0
 40
1.0
 10
16.9107151827
 20
11.8042368374
 30
0.0
 10
16.9015343423
 20
11.8042363689
 30
0.0
 10
16.8826240116
 20
11.8066853158
 30
0.0
 10
16.8550605298
 20
11.8174532766
 30
0.0
 10
16.8282912889
 20
11.835030569
 30
0.0
 10
16.8025073192
 20
11.8591161546
 30
0.0
 10
16.7778605748
 20
11.8894521594
 30
0.0
 10
16.7545280737
 20
11.9257566925
 30
0.0
 10
16.7326989725
 20
11.9677025598
 30
0.0
 10
16.7125716556
 20
12.0149083888
 30
0.0
 10
16.6943293296
 20
12.0669345932
 30
0.0
 10
16.6781464783
 20
12.1232925242
 30
0.0
 10
16.6641791466
 20
12.1834494524
 30
0.0
 10
16.6484503581
 20
12.2692769941
 30
0.0
 10
16.6353889485
 20
12.3818572832
 30
0.0
 10
16.6301686692
 20
12.5201430589
 30
0.0
 10
16.6353863633
 20
12.6584400769
 30
0.0
 10
16.6508364748
 20
12.7914915038
 30
0.0
 10
16.6722129313
 20
12.896308881
 30
0.0
 10
16.6943278217
 20
12.9733551659
 30
0.0
 10
16.7125715143
 20
13.0253815617
 30
0.0
 10
16.7327000573
 20
13.0725867397
 30
0.0
 10
16.7545268545
 20
13.1145337175
 30
0.0
 10
16.777861039
 20
13.1508374407
 30
0.0
 10
16.8025078444
 20
13.1811729974
 30
0.0
 10
16.8282901503
 20
13.2052607853
 30
0.0
 10
16.8550614577
 20
13.2228346696
 30
0.0
 10
16.8826236302
 20
13.2336059149
 30
0.0
 10
16.9015343181
 20
13.2360527281
 30
0.0
 10
16.9107151827
 20
13.2360534456
 30
0.0
  0
SPLINE
  5
43F
100
AcDbEntity
  8
0
100
AcDbSpline
 62
7
  6
BYLAYER
 70
0
 71
3
 72
9
 73
5
 74
0
 42
0.0000001
 43
0.0000001
 44
0.0000000001
 40
0.0
 40
0.0
 40
0.0
 40
0.0
 40
0.5401455173
 40
1.0
 40
1.0
 40
1.0
 40
1.0
 10
16.0291420827
 20
11.8148152358
 30
0.0
 10
16.029712121
 20
11.8139546915
 30
0.0
 10
16.0305851372
 20
11.8121986865
 30
0.0
 10
16.0305667847
 20
11.8101881552
 30
0.0
 10
16.0303073272
 20
11.8093485459
 30
0.0
  0
SPLINE
  5
440
100
AcDbEntity
  8
0
100
AcDbSpline
 62
7
  6
BYLAYER
 70
0
 71
3
 72
11
 73
7
 74
0
 42
0.0000001
 43
0.0000001
 44
0.0000000001
 40
0.0
 40
0.0
 40
0.0
 40
0.0
 40
0.2268630568
 40
0.4649901318
 40
0.7222804645
 40
1.0
 40
1.0
 40
1.0
 40
1.0
 10
16.6227511716
 20
11.6643969149
 30
0.0
 10
16.6219769919
 20
11.6659682384
 30
0.0
 10
16.619819106
 20
11.6689363114
 30
0.0
 10
16.6151992587
 20
11.6722064572
 30
0.0
 10
16.6095007354
 20
11.6741916886
 30
0.0
 10
16.6053519752
 20
11.6746052066
 30
0.0
 10
16.6032076064
 20
11.6746052066
 30
0.0
  0
SPLINE
  5
441
100
AcDbEntity
  8
0
100
AcDbSpline
 62
7
  6
BYLAYER
 70
0
 71
3
 72
35
 73
31
 74
0
 42
0.0000001
 43
0.0000001
 44
0.0000000001
 40
0.0
 40
0.0
 40
0.0
 40
0.0
 40
0.0168136132
 40
0.0344927508
 40
0.0537562658
 40
0.075111606
 40
0.0988651844
 40
0.1251593264
 40
0.1540157253
 40
0.1853642271
 40
0.2190635073
 40
0.25491983
 40
0.2926952992
 40
0.3321178108
 40
0.4146722469
 40
0.4999958317
 40
0.5853196736
 40
0.6678745892
 40
0.7072978609
 40
0.7450735594
 40
0.7809306973
 40
0.8146308587
 40
0.8459796668
 40
0.874837346
 40
0.9011321796
 40
0.924886199
 40
0.9462427615
 40
0.9655066179
 40
0.9831860826
 40
1.0
 40
1.0
 40
1.0
 40
1.0
 10
16.8186022736
 20
11.7633275957
 30
0.0
 10
16.808897043
 20
11.763328467
 30
0.0
 10
16.7889062537
 20
11.7659162724
 30
0.0
 10
16.7597695917
 20
11.7773035794
 30
0.0
 10
16.7314705697
 20
11.7958840139
 30
0.0
 10
16.7042142093
 20
11.821346787
 30
0.0
 10
16.678160648
 20
11.8534167159
 30
0.0
 10
16.6534944437
 20
11.8917948196
 30
0.0
 10
16.6304194789
 20
11.9361373498
 30
0.0
 10
16.6091425329
 20
11.986039634
 30
0.0
 10
16.5898577055
 20
12.0410373828
 30
0.0
 10
16.5727513424
 20
12.1006145222
 30
0.0
 10
16.5579856919
 20
12.1642072719
 30
0.0
 10
16.541358308
 20
12.2549368493
 30
0.0
 10
16.5275506651
 20
12.3739465932
 30
0.0
 10
16.5220309727
 20
12.520133315
 30
0.0
 10
16.5275481663
 20
12.6663205025
 30
0.0
 10
16.5413558798
 20
12.7853310398
 30
0.0
 10
16.5579806825
 20
12.8760619673
 30
0.0
 10
16.5727469411
 20
12.9396556524
 30
0.0
 10
16.5898518282
 20
12.9992343271
 30
0.0
 10
16.609135526
 20
13.0542337581
 30
0.0
 10
16.6304134042
 20
13.1041371527
 30
0.0
 10
16.653486252
 20
13.1484822089
 30
0.0
 10
16.6781523781
 20
13.1868621841
 30
0.0
 10
16.7042067301
 20
13.2189329824
 30
0.0
 10
16.7314608556
 20
13.2443999077
 30
0.0
 10
16.7597608045
 20
13.2629811377
 30
0.0
 10
16.7888970598
 20
13.2743704381
 30
0.0
 10
16.8088878499
 20
13.276960799
 30
0.0
 10
16.8185932559
 20
13.27696281
 30
0.0
  0
SPLINE
  5
442
100
AcDbEntity
  8
0
100
AcDbSpline
 62
7
  6
BYLAYER
 70
0
 71
3
 72
35
 73
31
 74
0
 42
0.0000001
 43
0.0000001
 44
0.0000000001
 40
0.0
 40
0.0
 40
0.0
 40
0.0
 40
0.0168137056
 40
0.0344927951
 40
0.0537562033
 40
0.0751114467
 40
0.0988649838
 40
0.1251591667
 40
0.154015701
 40
0.1853644343
 40
0.2190640369
 40
0.2549207627
 40
0.2926967015
 40
0.332119732
 40
0.4146752754
 40
0.4999999212
 40
0.5853246062
 40
0.6678799879
 40
0.7073033107
 40
0.7450789211
 40
0.7809358248
 40
0.8146356041
 40
0.8459838854
 40
0.8748409082
 40
0.9011349825
 40
0.9248881831
 40
0.9462439397
 40
0.9655071052
 40
0.9831861295
 40
1.0
 40
1.0
 40
1.0
 40
1.0
 10
16.8730354148
 20
11.7633275953
 30
0.0
 10
16.8633300046
 20
11.7633278912
 30
0.0
 10
16.8433387646
 20
11.7659146006
 30
0.0
 10
16.8142012197
 20
11.7773007479
 30
0.0
 10
16.7859013273
 20
11.7958804367
 30
0.0
 10
16.7586441331
 20
11.8213428443
 30
0.0
 10
16.7325897779
 20
11.8534127617
 30
0.0
 10
16.7079228273
 20
11.8917911922
 30
0.0
 10
16.6848471773
 20
11.9361343695
 30
0.0
 10
16.66356962
 20
11.9860375965
 30
0.0
 10
16.6442842707
 20
12.0410365539
 30
0.0
 10
16.6271774886
 20
12.1006151318
 30
0.0
 10
16.6124115341
 20
12.1642095091
 30
0.0
 10
16.5957839064
 20
12.2549414937
 30
0.0
 10
16.5819763127
 20
12.3739543823
 30
0.0
 10
16.5764572147
 20
12.5201447788
 30
0.0
 10
16.581975527
 20
12.6663352065
 30
0.0
 10
16.595784602
 20
12.7853479577
 30
0.0
 10
16.6124107457
 20
12.8760801143
 30
0.0
 10
16.6271780621
 20
12.9396742679
 30
0.0
 10
16.6442840741
 20
12.9992530395
 30
0.0
 10
16.6635689432
 20
13.054252169
 30
0.0
 10
16.6848480251
 20
13.1041548426
 30
0.0
 10
16.7079220866
 20
13.1484987469
 30
0.0
 10
16.7325894212
 20
13.1868771342
 30
0.0
 10
16.7586449717
 20
13.2189459048
 30
0.0
 10
16.7859002781
 20
13.2444103638
 30
0.0
 10
16.8142013952
 20
13.2629886591
 30
0.0
 10
16.8433387634
 20
13.2743744975
 30
0.0
 10
16.8633299094
 20
13.2769621403
 30
0.0
 10
16.8730354148
 20
13.2769628121
 30
0.0
  0
SPLINE
  5
443
100
AcDbEntity
  8
0
100
AcDbSpline
 62
7
  6
BYLAYER
 70
0
 71
3
 72
13
 73
9
 74
0
 42
0.0000001
 43
0.0000001
 44
0.0000000001
 40
0.0
 40
0.0
 40
0.0
 40
0.0
 40
0.2703666341
 40
0.5445113913
 40
0.6725053084
 40
0.7902812471
 40
0.8982226173
 40
1.0
 40
1.0
 40
1.0
 40
1.0
 10
16.6032076064
 20
11.6746052066
 30
0.0
 10
16.5980164219
 20
11.6746052066
 30
0.0
 10
16.587515806
 20
11.6721306346
 30
0.0
 10
16.5766013949
 20
11.6645993129
 30
0.0
 10
16.5705433002
 20
11.6565619487
 30
0.0
 10
16.5678942508
 20
11.6502141866
 30
0.0
 10
16.5672850258
 20
11.6438462432
 30
0.0
 10
16.5683644123
 20
11.6398516956
 30
0.0
 10
16.5692280859
 20
11.6380987298
 30
0.0
  0
ELLIPSE
  5
444
100
AcDbEntity
  8
0
100
AcDbEllipse
 62
7
  6
BYLAYER
 10
5.1306818182
 20
11.8897800305
 30
0.0
 11
0.0
 21
0.0413613003
 31
0.0
 40
0.5494815822
 41
-1.5707963268
 42
0.0
  0
ELLIPSE
  5
445
100
AcDbEntity
  8
0
100
AcDbEllipse
 62
7
  6
BYLAYER
 10
4.9488636364
 20
11.8897800305
 30
0.0
 11
0.0
 21
0.0413613003
 31
0.0
 40
0.5494815822
 41
0.0
 42
1.5707963268
  0
ELLIPSE
  5
446
100
AcDbEntity
  8
0
100
AcDbEllipse
 62
7
  6
BYLAYER
 10
15.7503445324
 20
11.8879044033
 30
0.0
 11
0.0038529751
 21
0.0464949653
 31
0.0
 40
0.4474617871
 41
0.0370635742
 42
1.1129275914
  0
ELLIPSE
  5
447
100
AcDbEntity
  8
0
100
AcDbEllipse
 62
7
  6
BYLAYER
 10
15.9178101677
 20
11.8879044033
 30
0.0
 11
0.0038529751
 21
0.0464949653
 31
0.0
 40
0.4474617871
 41
-1.5337327526
 42
0.0370635742
  0
ELLIPSE
  5
448
100
AcDbEntity
  8
0
100
AcDbEllipse
 62
7
  6
BYLAYER
 10
15.8870160857
 20
11.4226352152
 30
0.0
 11
0.0038529751
 21
0.0464949653
 31
0.0
 40
0.4474617871
 41
-2.0286650622
 42
-1.5337327526
  0
ENDSEC
  0
SECTION
  2
OBJECTS
  0
DICTIONARY
  5
C
100
AcDbDictionary
280
0
281
1
  3
ACAD_GROUP
350
D
  3
ACAD_MLINESTYLE
350
17
  3
ACAD_LAYOUT
350
1A
  3
ACAD_PLOTSETTINGS
350
19
  3
ACAD_PLOTSTYLENAME
350
E
  0
DICTIONARY
  5
D
102
{ACAD_REACTORS
330
C
102
}
100
AcDbDictionary
280
0
281
1
  0
ACDBDICTIONARYWDFLT
  5
E
102
{ACAD_REACTORS
330
C
102
}
100
AcDbDictionary
281
1
  3
Normal
350
F
100
AcDbDictionaryWithDefault
340
F
  0
DICTIONARY
  5
17
102
{ACAD_REACTORS
330
C
102
}
100
AcDbDictionary
280
0
281
1
  3
Standard
350
18
  0
DICTIONARY
  5
19
102
{ACAD_REACTORS
330
C
102
}
100
AcDbDictionary
281
1
  0
DICTIONARY
  5
1A
102
{ACAD_REACTORS
330
C
102
}
100
AcDbDictionary
281
1
  3
Model
350
449
  3
Layout1
350
44A
  0
ACDBPLACEHOLDER
  5
F
102
{ACAD_REACTORS
330
E
102
}
  0
MLINESTYLE
  5
18
102
{ACAD_REACTORS
330
17
102
}
100
AcDbMlineStyle
  2
STANDARD
 70
0
  3

 62
256
 51
90.0
 52
90.0
 71
2
 49
0.5
 62
256
  6
BYLAYER
 49
-0.5
 62
256
  6
BYLAYER
  0
LAYOUT
  5
449
102
{ACAD_REACTORS
330
1A
102
}
100
AcDbPlotSettings
  1

  2
none_device
  4
ANSI_C_(22.00_x_17.00_Inches)
  6

 40
0.0
 41
0.0
 42
0.0
 43
0.0
 44
558.8
 45
431.8
 46
0.0
 47
0.0
 48
0.0
 49
0.0
140
0.0
141
0.0
142
1.0
143
1.0
 70
1024
 72
0
 73
0
 74
0
  7

 75
0
147
1.0
148
0.0
149
0.0
100
AcDbLayout
  1
Model
 70
0
 71
0
 10
0.0
 20
0.0
 11
22.0
 21
17.0
 12
0.0
 22
0.0
 32
0.0
 14
0.0
 24
0.0
 34
0.0
 15
0.0
 25
0.0
 35
0.0
146
0.0
 13
0.0
 23
0.0
 33
0.0
 16
1.0
 26
0.0
 36
0.0
 17
0.0
 27
1.0
 37
0.0
 76
0
330
218
345
0
346
0
  0
LAYOUT
  5
44A
102
{ACAD_REACTORS
330
1A
102
}
100
AcDbPlotSettings
  1

  2
none_device
  4
ANSI_C_(22.00_x_17.00_Inches)
  6

 40
0.0
 41
0.0
 42
0.0
 43
0.0
 44
558.8
 45
431.8
 46
0.0
 47
0.0
 48
0.0
 49
0.0
140
0.0
141
0.0
142
1.0
143
1.0
 70
0
 72
0
 73
0
 74
0
  7

 75
0
147
1.0
148
0.0
149
0.0
100
AcDbLayout
  1
Layout1
 70
0
 71
1
 10
0.0
 20
0.0
 11
22.0
 21
17.0
 12
0.0
 22
0.0
 32
0.0
 14
0.0
 24
0.0
 34
0.0
 15
0.0
 25
0.0
 35
0.0
146
0.0
 13
0.0
 23
0.0
 33
0.0
 16
1.0
 26
0.0
 36
0.0
 17
0.0
 27
1.0
 37
0.0
 76
0
330
219
345
0
346
0
  0
ENDSEC
  0
EOF
